  0
SECTION
  2
HEADER
  9
$ACADVER
  1
AC1024
  9
$ACADMAINTVER
 70
     6
  9
$DWGCODEPAGE
  3
ANSI_936
  9
$INSBASE
 10
0.0
 20
0.0
 30
0.0
  9
$EXTMIN
 10
1.000000000000000E+20
 20
1.000000000000000E+20
 30
1.000000000000000E+20
  9
$EXTMAX
 10
-1.000000000000000E+20
 20
-1.000000000000000E+20
 30
-1.000000000000000E+20
  9
$LIMMIN
 10
0.0
 20
0.0
  9
$LIMMAX
 10
12.0
 20
9.0
  9
$ORTHOMODE
 70
     0
  9
$REGENMODE
 70
     1
  9
$FILLMODE
 70
     1
  9
$QTEXTMODE
 70
     0
  9
$MIRRTEXT
 70
     1
  9
$LTSCALE
 40
1.0
  9
$ATTMODE
 70
     1
  9
$TEXTSIZE
 40
0.2
  9
$TRACEWID
 40
0.05
  9
$TEXTSTYLE
  7
Standard
  9
$CLAYER
  8
0
  9
$CELTYPE
  6
ByLayer
  9
$CECOLOR
 62
   256
  9
$CELTSCALE
 40
1.0
  9
$DISPSILH
 70
     0
  9
$DIMSCALE
 40
1.0
  9
$DIMASZ
 40
0.18
  9
$DIMEXO
 40
0.0625
  9
$DIMDLI
 40
0.38
  9
$DIMRND
 40
0.0
  9
$DIMDLE
 40
0.0
  9
$DIMEXE
 40
0.18
  9
$DIMTP
 40
0.0
  9
$DIMTM
 40
0.0
  9
$DIMTXT
 40
0.18
  9
$DIMCEN
 40
0.09
  9
$DIMTSZ
 40
0.0
  9
$DIMTOL
 70
     0
  9
$DIMLIM
 70
     0
  9
$DIMTIH
 70
     1
  9
$DIMTOH
 70
     1
  9
$DIMSE1
 70
     0
  9
$DIMSE2
 70
     0
  9
$DIMTAD
 70
     0
  9
$DIMZIN
 70
     0
  9
$DIMBLK
  1

  9
$DIMASO
 70
     1
  9
$DIMSHO
 70
     1
  9
$DIMPOST
  1

  9
$DIMAPOST
  1

  9
$DIMALT
 70
     0
  9
$DIMALTD
 70
     2
  9
$DIMALTF
 40
25.4
  9
$DIMLFAC
 40
1.0
  9
$DIMTOFL
 70
     0
  9
$DIMTVP
 40
0.0
  9
$DIMTIX
 70
     0
  9
$DIMSOXD
 70
     0
  9
$DIMSAH
 70
     0
  9
$DIMBLK1
  1

  9
$DIMBLK2
  1

  9
$DIMSTYLE
  2
Standard
  9
$DIMCLRD
 70
     0
  9
$DIMCLRE
 70
     0
  9
$DIMCLRT
 70
     0
  9
$DIMTFAC
 40
1.0
  9
$DIMGAP
 40
0.09
  9
$DIMJUST
 70
     0
  9
$DIMSD1
 70
     0
  9
$DIMSD2
 70
     0
  9
$DIMTOLJ
 70
     1
  9
$DIMTZIN
 70
     0
  9
$DIMALTZ
 70
     0
  9
$DIMALTTZ
 70
     0
  9
$DIMUPT
 70
     0
  9
$DIMDEC
 70
     4
  9
$DIMTDEC
 70
     4
  9
$DIMALTU
 70
     2
  9
$DIMALTTD
 70
     2
  9
$DIMTXSTY
  7
Standard
  9
$DIMAUNIT
 70
     0
  9
$DIMADEC
 70
     0
  9
$DIMALTRND
 40
0.0
  9
$DIMAZIN
 70
     0
  9
$DIMDSEP
 70
    46
  9
$DIMATFIT
 70
     3
  9
$DIMFRAC
 70
     0
  9
$DIMLDRBLK
  1

  9
$DIMLUNIT
 70
     2
  9
$DIMLWD
 70
    -2
  9
$DIMLWE
 70
    -2
  9
$DIMTMOVE
 70
     0
  9
$DIMFXL
 40
1.0
  9
$DIMFXLON
 70
     0
  9
$DIMJOGANG
 40
0.7853981633974483
  9
$DIMTFILL
 70
     0
  9
$DIMTFILLCLR
 70
     0
  9
$DIMARCSYM
 70
     0
  9
$DIMLTYPE
  6

  9
$DIMLTEX1
  6

  9
$DIMLTEX2
  6

  9
$DIMTXTDIRECTION
 70
     0
  9
$LUNITS
 70
     2
  9
$LUPREC
 70
     4
  9
$SKETCHINC
 40
0.1
  9
$FILLETRAD
 40
0.5
  9
$AUNITS
 70
     0
  9
$AUPREC
 70
     0
  9
$MENU
  1
.
  9
$ELEVATION
 40
0.0
  9
$PELEVATION
 40
0.0
  9
$THICKNESS
 40
0.0
  9
$LIMCHECK
 70
     0
  9
$CHAMFERA
 40
0.5
  9
$CHAMFERB
 40
0.5
  9
$CHAMFERC
 40
1.0
  9
$CHAMFERD
 40
0.0
  9
$SKPOLY
 70
     0
  9
$TDCREATE
 40
2460005.537982963
  9
$TDUCREATE
 40
2460005.20464963
  9
$TDUPDATE
 40
2460005.537983357
  9
$TDUUPDATE
 40
2460005.204650023
  9
$TDINDWG
 40
0.0000000116
  9
$TDUSRTIMER
 40
0.0000000116
  9
$USRTIMER
 70
     1
  9
$ANGBASE
 50
0.0
  9
$ANGDIR
 70
     0
  9
$PDMODE
 70
     0
  9
$PDSIZE
 40
0.0
  9
$PLINEWID
 40
0.0
  9
$SPLFRAME
 70
     0
  9
$SPLINETYPE
 70
     6
  9
$SPLINESEGS
 70
     8
  9
$HANDSEED
  5
3EE
  9
$SURFTAB1
 70
     6
  9
$SURFTAB2
 70
     6
  9
$SURFTYPE
 70
     6
  9
$SURFU
 70
     6
  9
$SURFV
 70
     6
  9
$UCSBASE
  2

  9
$UCSNAME
  2

  9
$UCSORG
 10
0.0
 20
0.0
 30
0.0
  9
$UCSXDIR
 10
1.0
 20
0.0
 30
0.0
  9
$UCSYDIR
 10
0.0
 20
1.0
 30
0.0
  9
$UCSORTHOREF
  2

  9
$UCSORTHOVIEW
 70
     0
  9
$UCSORGTOP
 10
0.0
 20
0.0
 30
0.0
  9
$UCSORGBOTTOM
 10
0.0
 20
0.0
 30
0.0
  9
$UCSORGLEFT
 10
0.0
 20
0.0
 30
0.0
  9
$UCSORGRIGHT
 10
0.0
 20
0.0
 30
0.0
  9
$UCSORGFRONT
 10
0.0
 20
0.0
 30
0.0
  9
$UCSORGBACK
 10
0.0
 20
0.0
 30
0.0
  9
$PUCSBASE
  2

  9
$PUCSNAME
  2

  9
$PUCSORG
 10
0.0
 20
0.0
 30
0.0
  9
$PUCSXDIR
 10
1.0
 20
0.0
 30
0.0
  9
$PUCSYDIR
 10
0.0
 20
1.0
 30
0.0
  9
$PUCSORTHOREF
  2

  9
$PUCSORTHOVIEW
 70
     0
  9
$PUCSORGTOP
 10
0.0
 20
0.0
 30
0.0
  9
$PUCSORGBOTTOM
 10
0.0
 20
0.0
 30
0.0
  9
$PUCSORGLEFT
 10
0.0
 20
0.0
 30
0.0
  9
$PUCSORGRIGHT
 10
0.0
 20
0.0
 30
0.0
  9
$PUCSORGFRONT
 10
0.0
 20
0.0
 30
0.0
  9
$PUCSORGBACK
 10
0.0
 20
0.0
 30
0.0
  9
$USERI1
 70
     0
  9
$USERI2
 70
     0
  9
$USERI3
 70
     0
  9
$USERI4
 70
     0
  9
$USERI5
 70
     0
  9
$USERR1
 40
0.0
  9
$USERR2
 40
0.0
  9
$USERR3
 40
0.0
  9
$USERR4
 40
0.0
  9
$USERR5
 40
0.0
  9
$WORLDVIEW
 70
     1
  9
$SHADEDGE
 70
     3
  9
$SHADEDIF
 70
    70
  9
$TILEMODE
 70
     1
  9
$MAXACTVP
 70
    64
  9
$PINSBASE
 10
0.0
 20
0.0
 30
0.0
  9
$PLIMCHECK
 70
     0
  9
$PEXTMIN
 10
1.000000000000000E+20
 20
1.000000000000000E+20
 30
1.000000000000000E+20
  9
$PEXTMAX
 10
-1.000000000000000E+20
 20
-1.000000000000000E+20
 30
-1.000000000000000E+20
  9
$PLIMMIN
 10
0.0
 20
0.0
  9
$PLIMMAX
 10
12.0
 20
9.0
  9
$UNITMODE
 70
     0
  9
$VISRETAIN
 70
     1
  9
$PLINEGEN
 70
     0
  9
$PSLTSCALE
 70
     1
  9
$TREEDEPTH
 70
  3020
  9
$CMLSTYLE
  2
Standard
  9
$CMLJUST
 70
     0
  9
$CMLSCALE
 40
1.0
  9
$PROXYGRAPHICS
 70
     1
  9
$MEASUREMENT
 70
     0
  9
$CELWEIGHT
370
    -1
  9
$ENDCAPS
280
     0
  9
$JOINSTYLE
280
     0
  9
$LWDISPLAY
290
     1
  9
$INSUNITS
 70
     4
  9
$HYPERLINKBASE
  1

  9
$STYLESHEET
  1

  9
$XEDIT
290
     1
  9
$CEPSNTYPE
380
     0
  9
$PSTYLEMODE
290
     1
  9
$FINGERPRINTGUID
  2
{67367030-8818-4FA2-A996-847BD2DC550C}
  9
$VERSIONGUID
  2
{FAEB1C32-E019-11D5-929B-00C0DF256EC4}
  9
$EXTNAMES
290
     1
  9
$PSVPSCALE
 40
0.0
  9
$OLESTARTUP
290
     0
  9
$SORTENTS
280
   127
  9
$INDEXCTL
280
     0
  9
$HIDETEXT
280
     1
  9
$XCLIPFRAME
280
     2
  9
$HALOGAP
280
     0
  9
$OBSCOLOR
 70
   257
  9
$OBSLTYPE
280
     0
  9
$INTERSECTIONDISPLAY
280
     0
  9
$INTERSECTIONCOLOR
 70
   257
  9
$DIMASSOC
280
     2
  9
$PROJECTNAME
  1

  9
$CAMERADISPLAY
290
     0
  9
$LENSLENGTH
 40
50.0
  9
$CAMERAHEIGHT
 40
0.0
  9
$STEPSPERSEC
 40
2.0
  9
$STEPSIZE
 40
6.0
  9
$3DDWFPREC
 40
2.0
  9
$PSOLWIDTH
 40
0.25
  9
$PSOLHEIGHT
 40
4.0
  9
$LOFTANG1
 40
1.570796326794897
  9
$LOFTANG2
 40
1.570796326794897
  9
$LOFTMAG1
 40
0.0
  9
$LOFTMAG2
 40
0.0
  9
$LOFTPARAM
 70
     7
  9
$LOFTNORMALS
280
     1
  9
$LATITUDE
 40
37.795
  9
$LONGITUDE
 40
-122.394
  9
$NORTHDIRECTION
 40
0.0
  9
$TIMEZONE
 70
 -8000
  9
$LIGHTGLYPHDISPLAY
280
     1
  9
$TILEMODELIGHTSYNCH
280
     1
  9
$CMATERIAL
347
3C
  9
$SOLIDHIST
280
     1
  9
$SHOWHIST
280
     1
  9
$DWFFRAME
280
     2
  9
$DGNFRAME
280
     2
  9
$REALWORLDSCALE
290
     1
  9
$INTERFERECOLOR
 62
   256
  9
$CSHADOW
280
     0
  9
$SHADOWPLANELOCATION
 40
0.0
  0
ENDSEC
  0
SECTION
  2
CLASSES
  0
CLASS
  1
ACDBDICTIONARYWDFLT
  2
AcDbDictionaryWithDefault
  3
ObjectDBX Classes
 90
        0
 91
        4
280
     0
281
     0
  0
CLASS
  1
VISUALSTYLE
  2
AcDbVisualStyle
  3
ObjectDBX Classes
 90
     4095
 91
        4
280
     0
281
     0
  0
CLASS
  1
MATERIAL
  2
AcDbMaterial
  3
ObjectDBX Classes
 90
     1153
 91
        4
280
     0
281
     0
  0
CLASS
  1
SUN
  2
AcDbSun
  3
SCENEOE
 90
     1024
 91
        4
280
     0
281
     0
  0
ENDSEC
  0
SECTION
  2
TABLES
  0
TABLE
  2
VPORT
  5
8
330
0
100
AcDbSymbolTable
 70
     1
  0
VPORT
  5
29
330
8
100
AcDbSymbolTableRecord
100
AcDbViewportTableRecord
  2
*Active
 70
     0
 10
0.0
 20
0.0
 11
1.0
 21
1.0
 12
0.0
 22
0.0
 13
0.0
 23
0.0
 14
0.5
 24
0.5
 15
0.5
 25
0.5
 16
0.0
 26
0.0
 36
1.0
 17
581.0249998547438
 27
337.2555554712417
 37
0.0
 40
412.7499998968125
 41
0.7555555555555555
 42
50.0
 43
0.0
 44
0.0
 50
0.0
 51
0.0
 71
     0
 72
   100
 73
     1
 74
     3
 75
     0
 76
     0
 77
     0
 78
     0
281
     0
 65
     1
110
0.0
120
0.0
130
0.0
111
1.0
121
0.0
131
0.0
112
0.0
122
1.0
132
0.0
 79
     0
146
0.0
 60
     3
 61
     5
292
     1
282
     1
141
0.0
142
0.0
 63
   250
361
3F
  0
ENDTAB
  0
TABLE
  2
LTYPE
  5
5
330
0
100
AcDbSymbolTable
 70
     4
  0
LTYPE
  5
14
330
5
100
AcDbSymbolTableRecord
100
AcDbLinetypeTableRecord
  2
ByBlock
 70
     0
  3

 72
    65
 73
     0
 40
0.0
  0
LTYPE
  5
15
330
5
100
AcDbSymbolTableRecord
100
AcDbLinetypeTableRecord
  2
ByLayer
 70
     0
  3

 72
    65
 73
     0
 40
0.0
  0
LTYPE
  5
16
330
5
100
AcDbSymbolTableRecord
100
AcDbLinetypeTableRecord
  2
Continuous
 70
     0
  3
Solid line
 72
    65
 73
     0
 40
0.0
  0
LTYPE
  5
36D
330
5
100
AcDbSymbolTableRecord
100
AcDbLinetypeTableRecord
  2
AI-Linetype-1
 70
     0
  3
Adobe Illustrator Linetype No. 1
 72
    65
 73
     2
 40
8.46666666455
 49
4.233333332275
 74
     0
 49
-4.233333332275
 74
     0
  0
LTYPE
  5
372
330
5
100
AcDbSymbolTableRecord
100
AcDbLinetypeTableRecord
  2
AI-Linetype-2
 70
     0
  3
Adobe Illustrator Linetype No. 2
 72
    65
 73
     2
 40
8.46666666455
 49
4.233333332275
 74
     0
 49
-4.233333332275
 74
     0
  0
LTYPE
  5
3D4
330
5
100
AcDbSymbolTableRecord
100
AcDbLinetypeTableRecord
  2
AI-Linetype-3
 70
     0
  3
Adobe Illustrator Linetype No. 3
 72
    65
 73
     2
 40
7.055555553791667
 49
3.527777776895833
 74
     0
 49
-3.527777776895833
 74
     0
  0
ENDTAB
  0
TABLE
  2
LAYER
  5
2
330
0
100
AcDbSymbolTable
 70
     2
  0
LAYER
  5
10
330
2
100
AcDbSymbolTableRecord
100
AcDbLayerTableRecord
  2
0
 70
     0
 62
     7
  6
Continuous
370
    -3
390
F
347
3E
  0
LAYER
  5
40
330
2
100
AcDbSymbolTableRecord
100
AcDbLayerTableRecord
  2
_U+56FE_U+5C42 1
 70
     0
 62
     7
  6
Continuous
370
    -3
390
F
347
3E
  0
ENDTAB
  0
TABLE
  2
STYLE
  5
3
330
0
100
AcDbSymbolTable
 70
     1
  0
STYLE
  5
11
330
3
100
AcDbSymbolTableRecord
100
AcDbTextStyleTableRecord
  2
Standard
 70
     0
 40
0.0
 41
1.0
 50
0.0
 71
     0
 42
0.2
  3
txt
  4

  0
ENDTAB
  0
TABLE
  2
VIEW
  5
6
330
0
100
AcDbSymbolTable
 70
     0
  0
ENDTAB
  0
TABLE
  2
UCS
  5
7
330
0
100
AcDbSymbolTable
 70
     0
  0
ENDTAB
  0
TABLE
  2
APPID
  5
9
330
0
100
AcDbSymbolTable
 70
     1
  0
APPID
  5
12
330
9
100
AcDbSymbolTableRecord
100
AcDbRegAppTableRecord
  2
ACAD
 70
     0
  0
ENDTAB
  0
TABLE
  2
DIMSTYLE
  5
A
330
0
100
AcDbSymbolTable
 70
     1
100
AcDbDimStyleTable
  0
DIMSTYLE
105
27
330
A
100
AcDbSymbolTableRecord
100
AcDbDimStyleTableRecord
  2
Standard
 70
     0
178
     0
340
11
  0
ENDTAB
  0
TABLE
  2
BLOCK_RECORD
  5
1
330
0
100
AcDbSymbolTable
 70
    64
  0
BLOCK_RECORD
  5
1F
330
1
100
AcDbSymbolTableRecord
100
AcDbBlockTableRecord
  2
*Model_Space
340
22
 70
     0
280
     1
281
     0
  0
BLOCK_RECORD
  5
1B
330
1
100
AcDbSymbolTableRecord
100
AcDbBlockTableRecord
  2
*Paper_Space
340
1E
 70
     0
280
     1
281
     0
  0
BLOCK_RECORD
  5
23
330
1
100
AcDbSymbolTableRecord
100
AcDbBlockTableRecord
  2
*Paper_Space0
340
26
 70
     0
280
     1
281
     0
  0
BLOCK_RECORD
  5
41
330
1
100
AcDbSymbolTableRecord
100
AcDbBlockTableRecord
  2
block 2
340
0
102
{BLKREFS
331
42
102
}
 70
     0
280
     1
281
     0
  0
BLOCK_RECORD
  5
45
330
1
100
AcDbSymbolTableRecord
100
AcDbBlockTableRecord
  2
block 3
340
0
102
{BLKREFS
331
46
102
}
 70
     0
280
     1
281
     0
  0
BLOCK_RECORD
  5
49
330
1
100
AcDbSymbolTableRecord
100
AcDbBlockTableRecord
  2
block 4
340
0
102
{BLKREFS
331
4A
102
}
 70
     0
280
     1
281
     0
  0
BLOCK_RECORD
  5
8C
330
1
100
AcDbSymbolTableRecord
100
AcDbBlockTableRecord
  2
block 5
340
0
102
{BLKREFS
331
8D
102
}
 70
     0
280
     1
281
     0
  0
BLOCK_RECORD
  5
9E
330
1
100
AcDbSymbolTableRecord
100
AcDbBlockTableRecord
  2
block 6
340
0
102
{BLKREFS
331
9F
102
}
 70
     0
280
     1
281
     0
  0
BLOCK_RECORD
  5
BD
330
1
100
AcDbSymbolTableRecord
100
AcDbBlockTableRecord
  2
block 7
340
0
102
{BLKREFS
331
BE
102
}
 70
     0
280
     1
281
     0
  0
BLOCK_RECORD
  5
10F
330
1
100
AcDbSymbolTableRecord
100
AcDbBlockTableRecord
  2
block 8
340
0
102
{BLKREFS
331
110
102
}
 70
     0
280
     1
281
     0
  0
BLOCK_RECORD
  5
1FC
330
1
100
AcDbSymbolTableRecord
100
AcDbBlockTableRecord
  2
block 9
340
0
102
{BLKREFS
331
1FD
102
}
 70
     0
280
     1
281
     0
  0
BLOCK_RECORD
  5
200
330
1
100
AcDbSymbolTableRecord
100
AcDbBlockTableRecord
  2
block 10
340
0
102
{BLKREFS
331
201
102
}
 70
     0
280
     1
281
     0
  0
BLOCK_RECORD
  5
205
330
1
100
AcDbSymbolTableRecord
100
AcDbBlockTableRecord
  2
block 11
340
0
102
{BLKREFS
331
206
102
}
 70
     0
280
     1
281
     0
  0
BLOCK_RECORD
  5
20A
330
1
100
AcDbSymbolTableRecord
100
AcDbBlockTableRecord
  2
block 12
340
0
102
{BLKREFS
331
20B
102
}
 70
     0
280
     1
281
     0
  0
BLOCK_RECORD
  5
21F
330
1
100
AcDbSymbolTableRecord
100
AcDbBlockTableRecord
  2
block 13
340
0
102
{BLKREFS
331
220
102
}
 70
     0
280
     1
281
     0
  0
BLOCK_RECORD
  5
227
330
1
100
AcDbSymbolTableRecord
100
AcDbBlockTableRecord
  2
block 14
340
0
102
{BLKREFS
331
228
102
}
 70
     0
280
     1
281
     0
  0
BLOCK_RECORD
  5
22F
330
1
100
AcDbSymbolTableRecord
100
AcDbBlockTableRecord
  2
block 15
340
0
102
{BLKREFS
331
230
102
}
 70
     0
280
     1
281
     0
  0
BLOCK_RECORD
  5
237
330
1
100
AcDbSymbolTableRecord
100
AcDbBlockTableRecord
  2
block 16
340
0
102
{BLKREFS
331
238
102
}
 70
     0
280
     1
281
     0
  0
BLOCK_RECORD
  5
23F
330
1
100
AcDbSymbolTableRecord
100
AcDbBlockTableRecord
  2
block 17
340
0
102
{BLKREFS
331
240
102
}
 70
     0
280
     1
281
     0
  0
BLOCK_RECORD
  5
247
330
1
100
AcDbSymbolTableRecord
100
AcDbBlockTableRecord
  2
block 18
340
0
102
{BLKREFS
331
248
102
}
 70
     0
280
     1
281
     0
  0
BLOCK_RECORD
  5
24F
330
1
100
AcDbSymbolTableRecord
100
AcDbBlockTableRecord
  2
block 19
340
0
102
{BLKREFS
331
250
102
}
 70
     0
280
     1
281
     0
  0
BLOCK_RECORD
  5
257
330
1
100
AcDbSymbolTableRecord
100
AcDbBlockTableRecord
  2
block 20
340
0
102
{BLKREFS
331
258
102
}
 70
     0
280
     1
281
     0
  0
BLOCK_RECORD
  5
25F
330
1
100
AcDbSymbolTableRecord
100
AcDbBlockTableRecord
  2
block 21
340
0
102
{BLKREFS
331
260
102
}
 70
     0
280
     1
281
     0
  0
BLOCK_RECORD
  5
267
330
1
100
AcDbSymbolTableRecord
100
AcDbBlockTableRecord
  2
block 22
340
0
102
{BLKREFS
331
268
102
}
 70
     0
280
     1
281
     0
  0
BLOCK_RECORD
  5
26F
330
1
100
AcDbSymbolTableRecord
100
AcDbBlockTableRecord
  2
block 23
340
0
102
{BLKREFS
331
270
102
}
 70
     0
280
     1
281
     0
  0
BLOCK_RECORD
  5
277
330
1
100
AcDbSymbolTableRecord
100
AcDbBlockTableRecord
  2
block 24
340
0
102
{BLKREFS
331
278
102
}
 70
     0
280
     1
281
     0
  0
BLOCK_RECORD
  5
27F
330
1
100
AcDbSymbolTableRecord
100
AcDbBlockTableRecord
  2
block 25
340
0
102
{BLKREFS
331
280
102
}
 70
     0
280
     1
281
     0
  0
BLOCK_RECORD
  5
283
330
1
100
AcDbSymbolTableRecord
100
AcDbBlockTableRecord
  2
block 26
340
0
102
{BLKREFS
331
284
102
}
 70
     0
280
     1
281
     0
  0
BLOCK_RECORD
  5
28B
330
1
100
AcDbSymbolTableRecord
100
AcDbBlockTableRecord
  2
block 27
340
0
102
{BLKREFS
331
28C
102
}
 70
     0
280
     1
281
     0
  0
BLOCK_RECORD
  5
293
330
1
100
AcDbSymbolTableRecord
100
AcDbBlockTableRecord
  2
block 28
340
0
102
{BLKREFS
331
294
102
}
 70
     0
280
     1
281
     0
  0
BLOCK_RECORD
  5
29B
330
1
100
AcDbSymbolTableRecord
100
AcDbBlockTableRecord
  2
block 29
340
0
102
{BLKREFS
331
29C
102
}
 70
     0
280
     1
281
     0
  0
BLOCK_RECORD
  5
2A2
330
1
100
AcDbSymbolTableRecord
100
AcDbBlockTableRecord
  2
block 30
340
0
102
{BLKREFS
331
2A3
102
}
 70
     0
280
     1
281
     0
  0
BLOCK_RECORD
  5
2AA
330
1
100
AcDbSymbolTableRecord
100
AcDbBlockTableRecord
  2
block 31
340
0
102
{BLKREFS
331
2AB
102
}
 70
     0
280
     1
281
     0
  0
BLOCK_RECORD
  5
2B2
330
1
100
AcDbSymbolTableRecord
100
AcDbBlockTableRecord
  2
block 32
340
0
102
{BLKREFS
331
2B3
102
}
 70
     0
280
     1
281
     0
  0
BLOCK_RECORD
  5
2BA
330
1
100
AcDbSymbolTableRecord
100
AcDbBlockTableRecord
  2
block 33
340
0
102
{BLKREFS
331
2BB
102
}
 70
     0
280
     1
281
     0
  0
BLOCK_RECORD
  5
2C1
330
1
100
AcDbSymbolTableRecord
100
AcDbBlockTableRecord
  2
block 34
340
0
102
{BLKREFS
331
2C2
102
}
 70
     0
280
     1
281
     0
  0
BLOCK_RECORD
  5
2CD
330
1
100
AcDbSymbolTableRecord
100
AcDbBlockTableRecord
  2
block 35
340
0
102
{BLKREFS
331
2CE
102
}
 70
     0
280
     1
281
     0
  0
BLOCK_RECORD
  5
2D5
330
1
100
AcDbSymbolTableRecord
100
AcDbBlockTableRecord
  2
block 36
340
0
102
{BLKREFS
331
2D6
102
}
 70
     0
280
     1
281
     0
  0
BLOCK_RECORD
  5
2DD
330
1
100
AcDbSymbolTableRecord
100
AcDbBlockTableRecord
  2
block 37
340
0
102
{BLKREFS
331
2DE
102
}
 70
     0
280
     1
281
     0
  0
BLOCK_RECORD
  5
2E4
330
1
100
AcDbSymbolTableRecord
100
AcDbBlockTableRecord
  2
block 38
340
0
102
{BLKREFS
331
2E5
102
}
 70
     0
280
     1
281
     0
  0
BLOCK_RECORD
  5
2EC
330
1
100
AcDbSymbolTableRecord
100
AcDbBlockTableRecord
  2
block 39
340
0
102
{BLKREFS
331
2ED
102
}
 70
     0
280
     1
281
     0
  0
BLOCK_RECORD
  5
2F4
330
1
100
AcDbSymbolTableRecord
100
AcDbBlockTableRecord
  2
block 40
340
0
102
{BLKREFS
331
2F5
102
}
 70
     0
280
     1
281
     0
  0
BLOCK_RECORD
  5
2FC
330
1
100
AcDbSymbolTableRecord
100
AcDbBlockTableRecord
  2
block 41
340
0
102
{BLKREFS
331
2FD
102
}
 70
     0
280
     1
281
     0
  0
BLOCK_RECORD
  5
303
330
1
100
AcDbSymbolTableRecord
100
AcDbBlockTableRecord
  2
block 42
340
0
102
{BLKREFS
331
304
102
}
 70
     0
280
     1
281
     0
  0
BLOCK_RECORD
  5
30B
330
1
100
AcDbSymbolTableRecord
100
AcDbBlockTableRecord
  2
block 43
340
0
102
{BLKREFS
331
30C
102
}
 70
     0
280
     1
281
     0
  0
BLOCK_RECORD
  5
313
330
1
100
AcDbSymbolTableRecord
100
AcDbBlockTableRecord
  2
block 44
340
0
102
{BLKREFS
331
314
102
}
 70
     0
280
     1
281
     0
  0
BLOCK_RECORD
  5
31B
330
1
100
AcDbSymbolTableRecord
100
AcDbBlockTableRecord
  2
block 45
340
0
102
{BLKREFS
331
31C
102
}
 70
     0
280
     1
281
     0
  0
BLOCK_RECORD
  5
323
330
1
100
AcDbSymbolTableRecord
100
AcDbBlockTableRecord
  2
block 46
340
0
102
{BLKREFS
331
324
102
}
 70
     0
280
     1
281
     0
  0
BLOCK_RECORD
  5
32B
330
1
100
AcDbSymbolTableRecord
100
AcDbBlockTableRecord
  2
block 47
340
0
102
{BLKREFS
331
32C
102
}
 70
     0
280
     1
281
     0
  0
BLOCK_RECORD
  5
333
330
1
100
AcDbSymbolTableRecord
100
AcDbBlockTableRecord
  2
block 48
340
0
102
{BLKREFS
331
334
102
}
 70
     0
280
     1
281
     0
  0
BLOCK_RECORD
  5
33B
330
1
100
AcDbSymbolTableRecord
100
AcDbBlockTableRecord
  2
block 49
340
0
102
{BLKREFS
331
33C
102
}
 70
     0
280
     1
281
     0
  0
BLOCK_RECORD
  5
35F
330
1
100
AcDbSymbolTableRecord
100
AcDbBlockTableRecord
  2
block 50
340
0
102
{BLKREFS
331
360
102
}
 70
     0
280
     1
281
     0
  0
BLOCK_RECORD
  5
374
330
1
100
AcDbSymbolTableRecord
100
AcDbBlockTableRecord
  2
block 51
340
0
102
{BLKREFS
331
375
102
}
 70
     0
280
     1
281
     0
  0
BLOCK_RECORD
  5
37B
330
1
100
AcDbSymbolTableRecord
100
AcDbBlockTableRecord
  2
block 52
340
0
102
{BLKREFS
331
37C
102
}
 70
     0
280
     1
281
     0
  0
BLOCK_RECORD
  5
37F
330
1
100
AcDbSymbolTableRecord
100
AcDbBlockTableRecord
  2
block 53
340
0
102
{BLKREFS
331
380
102
}
 70
     0
280
     1
281
     0
  0
BLOCK_RECORD
  5
387
330
1
100
AcDbSymbolTableRecord
100
AcDbBlockTableRecord
  2
block 54
340
0
102
{BLKREFS
331
388
102
}
 70
     0
280
     1
281
     0
  0
BLOCK_RECORD
  5
38F
330
1
100
AcDbSymbolTableRecord
100
AcDbBlockTableRecord
  2
block 55
340
0
102
{BLKREFS
331
390
102
}
 70
     0
280
     1
281
     0
  0
BLOCK_RECORD
  5
394
330
1
100
AcDbSymbolTableRecord
100
AcDbBlockTableRecord
  2
block 56
340
0
102
{BLKREFS
331
395
102
}
 70
     0
280
     1
281
     0
  0
BLOCK_RECORD
  5
39C
330
1
100
AcDbSymbolTableRecord
100
AcDbBlockTableRecord
  2
block 57
340
0
102
{BLKREFS
331
39D
102
}
 70
     0
280
     1
281
     0
  0
BLOCK_RECORD
  5
3A1
330
1
100
AcDbSymbolTableRecord
100
AcDbBlockTableRecord
  2
block 58
340
0
102
{BLKREFS
331
3A2
102
}
 70
     0
280
     1
281
     0
  0
BLOCK_RECORD
  5
3A9
330
1
100
AcDbSymbolTableRecord
100
AcDbBlockTableRecord
  2
block 59
340
0
102
{BLKREFS
331
3AA
102
}
 70
     0
280
     1
281
     0
  0
BLOCK_RECORD
  5
3AE
330
1
100
AcDbSymbolTableRecord
100
AcDbBlockTableRecord
  2
block 60
340
0
102
{BLKREFS
331
3AF
102
}
 70
     0
280
     1
281
     0
  0
BLOCK_RECORD
  5
3B3
330
1
100
AcDbSymbolTableRecord
100
AcDbBlockTableRecord
  2
block 61
340
0
102
{BLKREFS
331
3B4
102
}
 70
     0
280
     1
281
     0
  0
BLOCK_RECORD
  5
3BB
330
1
100
AcDbSymbolTableRecord
100
AcDbBlockTableRecord
  2
block 62
340
0
102
{BLKREFS
331
3BC
102
}
 70
     0
280
     1
281
     0
  0
BLOCK_RECORD
  5
3C3
330
1
100
AcDbSymbolTableRecord
100
AcDbBlockTableRecord
  2
block 63
340
0
102
{BLKREFS
331
3C4
102
}
 70
     0
280
     1
281
     0
  0
BLOCK_RECORD
  5
3CB
330
1
100
AcDbSymbolTableRecord
100
AcDbBlockTableRecord
  2
block 64
340
0
102
{BLKREFS
331
3CC
102
}
 70
     0
280
     1
281
     0
  0
ENDTAB
  0
ENDSEC
  0
SECTION
  2
BLOCKS
  0
BLOCK
  5
20
330
1F
100
AcDbEntity
  8
0
100
AcDbBlockBegin
  2
*Model_Space
 70
     0
 10
0.0
 20
0.0
 30
0.0
  3
*Model_Space
  1

  0
ENDBLK
  5
21
330
1F
100
AcDbEntity
  8
0
100
AcDbBlockEnd
  0
BLOCK
  5
1C
330
1B
100
AcDbEntity
 67
     1
  8
0
100
AcDbBlockBegin
  2
*Paper_Space
 70
     0
 10
0.0
 20
0.0
 30
0.0
  3
*Paper_Space
  1

  0
ENDBLK
  5
1D
330
1B
100
AcDbEntity
 67
     1
  8
0
100
AcDbBlockEnd
  0
BLOCK
  5
24
330
23
100
AcDbEntity
  8
0
100
AcDbBlockBegin
  2
*Paper_Space0
 70
     0
 10
0.0
 20
0.0
 30
0.0
  3
*Paper_Space0
  1

  0
ENDBLK
  5
25
330
23
100
AcDbEntity
  8
0
100
AcDbBlockEnd
  0
BLOCK
  5
43
330
41
100
AcDbEntity
  8
0
100
AcDbBlockBegin
  2
block 2
 70
     0
 10
0.0
 20
0.0
 30
0.0
  3
block 2
  1

  0
INSERT
  5
46
330
41
100
AcDbEntity
  8
_U+56FE_U+5C42 1
100
AcDbBlockReference
  2
block 3
 10
0.0
 20
0.0
 30
0.0
  0
INSERT
  5
8D
330
41
100
AcDbEntity
  8
_U+56FE_U+5C42 1
100
AcDbBlockReference
  2
block 5
 10
0.0
 20
0.0
 30
0.0
  0
INSERT
  5
9F
330
41
100
AcDbEntity
  8
_U+56FE_U+5C42 1
100
AcDbBlockReference
  2
block 6
 10
0.0
 20
0.0
 30
0.0
  0
INSERT
  5
BE
330
41
100
AcDbEntity
  8
_U+56FE_U+5C42 1
100
AcDbBlockReference
  2
block 7
 10
0.0
 20
0.0
 30
0.0
  0
INSERT
  5
110
330
41
100
AcDbEntity
  8
_U+56FE_U+5C42 1
100
AcDbBlockReference
  2
block 8
 10
0.0
 20
0.0
 30
0.0
  0
SPLINE
  5
14D
330
41
100
AcDbEntity
  8
_U+56FE_U+5C42 1
 62
   250
420
  2234132
370
    13
100
AcDbSpline
210
0.0
220
0.0
230
1.0
 70
    11
 71
     3
 72
    29
 73
    25
 74
     0
 42
0.0000000001
 43
0.0000000001
 12
1.0
 22
0.0
 32
0.0
 13
1.0
 23
0.0
 33
0.0
 40
0.0
 40
0.0
 40
0.0
 40
0.0
 40
1.0
 40
1.0
 40
1.0
 40
2.0
 40
2.0
 40
2.0
 40
3.0
 40
3.0
 40
3.0
 40
4.0
 40
4.0
 40
4.0
 40
5.0
 40
5.0
 40
5.0
 40
6.0
 40
6.0
 40
6.0
 40
7.0
 40
7.0
 40
7.0
 40
8.0
 40
8.0
 40
8.0
 40
8.0
 10
676.4217843533227
 20
309.0301082374873
 30
0.0
 10
676.4217843533227
 20
309.0301082374873
 30
0.0
 10
676.4217843533227
 20
307.3785336001959
 30
0.0
 10
676.4217843533227
 20
307.3785336001959
 30
0.0
 10
676.4217843533227
 20
307.3785336001959
 30
0.0
 10
688.6676968746506
 20
307.3785336001959
 30
0.0
 10
688.6676968746506
 20
307.3785336001959
 30
0.0
 10
688.6676968746506
 20
307.3785336001959
 30
0.0
 10
692.7956789911809
 20
307.8604854164672
 30
0.0
 10
692.5894648888587
 20
303.5948936835464
 30
0.0
 10
692.3827794400246
 20
299.3292783832983
 30
0.0
 10
690.3188001654225
 20
281.0977599771111
 30
0.0
 10
690.3188001654225
 20
281.0977599771111
 30
0.0
 10
690.3188001654225
 20
281.0977599771111
 30
0.0
 10
691.9929051663521
 20
280.2719844421287
 30
0.0
 10
692.222144546151
 20
282.4049924145235
 30
0.0
 10
692.4518317051425
 20
284.5375761750533
 30
0.0
 10
694.125936706072
 20
303.4112335121903
 30
0.0
 10
694.125936706072
 20
303.4112335121903
 30
0.0
 10
694.125936706072
 20
303.4112335121903
 30
0.0
 10
694.928239184381
 20
308.9610559723694
 30
0.0
 10
688.6331943094176
 20
309.0301082374873
 30
0.0
 10
682.3381258671285
 20
309.0986891560855
 30
0.0
 10
676.4217843533227
 20
309.0301082374873
 30
0.0
 10
676.4217843533227
 20
309.0301082374873
 30
0.0
  0
POLYLINE
  5
14E
330
41
100
AcDbEntity
  8
_U+56FE_U+5C42 1
 62
   250
420
  2234132
370
    13
100
AcDb2dPolyline
 66
     1
 10
0.0
 20
0.0
 30
0.0
  0
VERTEX
  5
14F
330
14E
100
AcDbEntity
  8
_U+56FE_U+5C42 1
 62
   250
420
  2234132
370
    13
100
AcDbVertex
100
AcDb2dVertex
 10
617.4404032411398
 20
309.5497677753285
 30
0.0
  0
VERTEX
  5
150
330
14E
100
AcDbEntity
  8
_U+56FE_U+5C42 1
 62
   250
420
  2234132
370
    13
100
AcDbVertex
100
AcDb2dVertex
 10
618.7244218624579
 20
306.4722049450139
 30
0.0
  0
VERTEX
  5
151
330
14E
100
AcDbEntity
  8
_U+56FE_U+5C42 1
 62
   250
420
  2234132
370
    13
100
AcDbVertex
100
AcDb2dVertex
 10
678.473461483763
 20
304.7442486042237
 30
0.0
  0
VERTEX
  5
152
330
14E
100
AcDbEntity
  8
_U+56FE_U+5C42 1
 62
   250
420
  2234132
370
    13
100
AcDbVertex
100
AcDb2dVertex
 10
680.2953336185823
 20
307.3785336001959
 30
0.0
  0
VERTEX
  5
153
330
14E
100
AcDbEntity
  8
_U+56FE_U+5C42 1
 62
   250
420
  2234132
370
    13
100
AcDbVertex
100
AcDb2dVertex
 10
682.5935956807435
 20
307.3785336001959
 30
0.0
  0
VERTEX
  5
154
330
14E
100
AcDbEntity
  8
_U+56FE_U+5C42 1
 62
   250
420
  2234132
370
    13
100
AcDbVertex
100
AcDb2dVertex
 10
678.9847310535532
 20
302.7562268212536
 30
0.0
  0
VERTEX
  5
155
330
14E
100
AcDbEntity
  8
_U+56FE_U+5C42 1
 62
   250
420
  2234132
370
    13
100
AcDbVertex
100
AcDb2dVertex
 10
617.5076172548298
 20
305.0093810214899
 30
0.0
  0
VERTEX
  5
156
330
14E
100
AcDbEntity
  8
_U+56FE_U+5C42 1
 62
   250
420
  2234132
370
    13
100
AcDbVertex
100
AcDb2dVertex
 10
615.5223528489965
 20
308.970718576021
 30
0.0
  0
VERTEX
  5
157
330
14E
100
AcDbEntity
  8
_U+56FE_U+5C42 1
 62
   250
420
  2234132
370
    13
100
AcDbVertex
100
AcDb2dVertex
 10
617.4404032411398
 20
309.5497677753285
 30
0.0
  0
SEQEND
  5
158
330
14E
100
AcDbEntity
  8
_U+56FE_U+5C42 1
 62
   250
420
  2234132
370
    13
  0
POLYLINE
  5
159
330
41
100
AcDbEntity
  8
_U+56FE_U+5C42 1
 62
   250
420
  2234132
370
    13
100
AcDb2dPolyline
 66
     1
 10
0.0
 20
0.0
 30
0.0
  0
VERTEX
  5
15A
330
159
100
AcDbEntity
  8
_U+56FE_U+5C42 1
 62
   250
420
  2234132
370
    13
100
AcDbVertex
100
AcDb2dVertex
 10
642.5729767425148
 20
305.8213461034487
 30
0.0
  0
VERTEX
  5
15B
330
159
100
AcDbEntity
  8
_U+56FE_U+5C42 1
 62
   250
420
  2234132
370
    13
100
AcDbVertex
100
AcDb2dVertex
 10
642.5729767425148
 20
304.1486315747533
 30
0.0
  0
SEQEND
  5
15C
330
159
100
AcDbEntity
  8
_U+56FE_U+5C42 1
 62
   250
420
  2234132
370
    13
  0
POLYLINE
  5
15D
330
41
100
AcDbEntity
  8
_U+56FE_U+5C42 1
 62
   250
420
  2234132
370
    13
100
AcDb2dPolyline
 66
     1
 10
0.0
 20
0.0
 30
0.0
  0
VERTEX
  5
15E
330
15D
100
AcDbEntity
  8
_U+56FE_U+5C42 1
 62
   250
420
  2234132
370
    13
100
AcDbVertex
100
AcDb2dVertex
 10
647.3415659138059
 20
305.5461033033386
 30
0.0
  0
VERTEX
  5
15F
330
15D
100
AcDbEntity
  8
_U+56FE_U+5C42 1
 62
   250
420
  2234132
370
    13
100
AcDbVertex
100
AcDb2dVertex
 10
647.3415659138059
 20
303.8738365538358
 30
0.0
  0
SEQEND
  5
160
330
15D
100
AcDbEntity
  8
_U+56FE_U+5C42 1
 62
   250
420
  2234132
370
    13
  0
POLYLINE
  5
161
330
41
100
AcDbEntity
  8
_U+56FE_U+5C42 1
 62
   250
420
  2234132
370
    13
100
AcDb2dPolyline
 66
     1
 10
0.0
 20
0.0
 30
0.0
  0
VERTEX
  5
162
330
161
100
AcDbEntity
  8
_U+56FE_U+5C42 1
 62
   250
420
  2234132
370
    13
100
AcDbVertex
100
AcDb2dVertex
 10
657.9491722023688
 20
305.3168639235394
 30
0.0
  0
VERTEX
  5
163
330
161
100
AcDbEntity
  8
_U+56FE_U+5C42 1
 62
   250
420
  2234132
370
    13
100
AcDbVertex
100
AcDb2dVertex
 10
657.9491722023688
 20
303.6441258275162
 30
0.0
  0
SEQEND
  5
164
330
161
100
AcDbEntity
  8
_U+56FE_U+5C42 1
 62
   250
420
  2234132
370
    13
  0
POLYLINE
  5
165
330
41
100
AcDbEntity
  8
_U+56FE_U+5C42 1
 62
   250
420
  2234132
370
    13
100
AcDb2dPolyline
 66
     1
 10
0.0
 20
0.0
 30
0.0
  0
VERTEX
  5
166
330
165
100
AcDbEntity
  8
_U+56FE_U+5C42 1
 62
   250
420
  2234132
370
    13
100
AcDbVertex
100
AcDb2dVertex
 10
652.8697771360642
 20
305.5461033033386
 30
0.0
  0
VERTEX
  5
167
330
165
100
AcDbEntity
  8
_U+56FE_U+5C42 1
 62
   250
420
  2234132
370
    13
100
AcDbVertex
100
AcDb2dVertex
 10
652.8697771360642
 20
303.8738365538358
 30
0.0
  0
SEQEND
  5
168
330
165
100
AcDbEntity
  8
_U+56FE_U+5C42 1
 62
   250
420
  2234132
370
    13
  0
SPLINE
  5
169
330
41
100
AcDbEntity
  8
_U+56FE_U+5C42 1
 62
   250
420
  2234132
370
    13
100
AcDbSpline
210
0.0
220
0.0
230
1.0
 70
    11
 71
     3
 72
    23
 73
    19
 74
     0
 42
0.0000000001
 43
0.0000000001
 12
1.0
 22
0.0
 32
0.0
 13
1.0
 23
0.0
 33
0.0
 40
0.0
 40
0.0
 40
0.0
 40
0.0
 40
1.0
 40
1.0
 40
1.0
 40
2.0
 40
2.0
 40
2.0
 40
3.0
 40
3.0
 40
3.0
 40
4.0
 40
4.0
 40
4.0
 40
5.0
 40
5.0
 40
5.0
 40
6.0
 40
6.0
 40
6.0
 40
6.0
 10
605.4892001311791
 20
325.6864808445311
 30
0.0
 10
605.4892001311791
 20
325.6864808445311
 30
0.0
 10
607.1858590630694
 20
324.038629844743
 30
0.0
 10
606.7729830792396
 20
322.0436792679351
 30
0.0
 10
606.3603192013414
 20
320.0487522584509
 30
0.0
 10
603.7667585446652
 20
312.478196566844
 30
0.0
 10
608.238800053165
 20
309.58844175726
 30
0.0
 10
608.238800053165
 20
309.58844175726
 30
0.0
 10
688.0223763546893
 20
309.6947775320783
 30
0.0
 10
688.0223763546893
 20
309.6947775320783
 30
0.0
 10
688.0223763546893
 20
309.6947775320783
 30
0.0
 10
688.5250202831701
 20
321.696155479046
 30
0.0
 10
688.5250202831701
 20
321.696155479046
 30
0.0
 10
688.5250202831701
 20
321.696155479046
 30
0.0
 10
688.6676968746506
 20
325.7477087574238
 30
0.0
 10
685.9160465953015
 20
325.8397627326992
 30
0.0
 10
683.163901402114
 20
325.9313689287796
 30
0.0
 10
605.4892001311791
 20
325.6864808445311
 30
0.0
 10
605.4892001311791
 20
325.6864808445311
 30
0.0
  0
POLYLINE
  5
16A
330
41
100
AcDbEntity
  8
_U+56FE_U+5C42 1
370
     0
100
AcDb2dPolyline
 66
     1
 10
0.0
 20
0.0
 30
0.0
  0
VERTEX
  5
16B
330
16A
100
AcDbEntity
  8
_U+56FE_U+5C42 1
370
     0
100
AcDbVertex
100
AcDb2dVertex
 10
654.3370788515235
 20
310.6811879609333
 30
0.0
  0
VERTEX
  5
16C
330
16A
100
AcDbEntity
  8
_U+56FE_U+5C42 1
370
     0
100
AcDbVertex
100
AcDb2dVertex
 10
652.1268407518952
 20
310.6365514455296
 30
0.0
  0
SEQEND
  5
16D
330
16A
100
AcDbEntity
  8
_U+56FE_U+5C42 1
370
     0
  0
POLYLINE
  5
16E
330
41
100
AcDbEntity
  8
_U+56FE_U+5C42 1
370
     0
100
AcDb2dPolyline
 66
     1
 10
0.0
 20
0.0
 30
0.0
  0
VERTEX
  5
16F
330
16E
100
AcDbEntity
  8
_U+56FE_U+5C42 1
370
     0
100
AcDbVertex
100
AcDb2dVertex
 10
647.2067136745559
 20
310.8800490575476
 30
0.0
  0
VERTEX
  5
170
330
16E
100
AcDbEntity
  8
_U+56FE_U+5C42 1
370
     0
100
AcDbVertex
100
AcDb2dVertex
 10
649.9997953129746
 20
310.7820089814734
 30
0.0
  0
SEQEND
  5
171
330
16E
100
AcDbEntity
  8
_U+56FE_U+5C42 1
370
     0
  0
POLYLINE
  5
172
330
41
100
AcDbEntity
  8
_U+56FE_U+5C42 1
 62
   250
420
  2234388
370
    13
100
AcDb2dPolyline
 66
     1
 10
0.0
 20
0.0
 30
0.0
  0
VERTEX
  5
173
330
172
100
AcDbEntity
  8
_U+56FE_U+5C42 1
 62
   250
420
  2234388
370
    13
100
AcDbVertex
100
AcDb2dVertex
 10
651.7659778565026
 20
303.3256134169097
 30
0.0
  0
VERTEX
  5
174
330
172
100
AcDbEntity
  8
_U+56FE_U+5C42 1
 62
   250
420
  2234388
370
    13
100
AcDbVertex
100
AcDb2dVertex
 10
648.4149869101807
 20
303.4655326312476
 30
0.0
  0
VERTEX
  5
175
330
172
100
AcDbEntity
  8
_U+56FE_U+5C42 1
 62
   250
420
  2234388
370
    13
100
AcDbVertex
100
AcDb2dVertex
 10
648.4292687097217
 20
303.8121372944234
 30
0.0
  0
VERTEX
  5
176
330
172
100
AcDbEntity
  8
_U+56FE_U+5C42 1
 62
   250
420
  2234388
370
    13
100
AcDbVertex
100
AcDb2dVertex
 10
651.780236088721
 20
303.6722180800843
 30
0.0
  0
VERTEX
  5
177
330
172
100
AcDbEntity
  8
_U+56FE_U+5C42 1
 62
   250
420
  2234388
370
    13
100
AcDbVertex
100
AcDb2dVertex
 10
651.7659778565026
 20
303.3256134169097
 30
0.0
  0
SEQEND
  5
179
330
172
100
AcDbEntity
  8
_U+56FE_U+5C42 1
 62
   250
420
  2234388
370
    13
  0
HATCH
  5
178
330
41
100
AcDbEntity
  8
_U+56FE_U+5C42 1
 62
   250
420
  2234388
100
AcDbHatch
 10
0.0
 20
0.0
 30
0.0
210
0.0
220
0.0
230
1.0
  2
SOLID
 70
     1
 71
     0
 91
        1
 92
        1
 93
        4
 72
     1
 10
651.7659778565026
 20
303.3256134169097
 11
648.4149869101807
 21
303.4655326312476
 72
     1
 10
648.4149869101807
 20
303.4655326312476
 11
648.4292687097217
 21
303.8121372944234
 72
     1
 10
648.4292687097217
 20
303.8121372944234
 11
651.780236088721
 21
303.6722180800843
 72
     1
 10
651.780236088721
 20
303.6722180800843
 11
651.7659778565026
 21
303.3256134169097
 97
        0
 75
     2
 76
     1
 98
        0
  0
POLYLINE
  5
17A
330
41
100
AcDbEntity
  8
_U+56FE_U+5C42 1
 62
   250
420
  2234388
370
    13
100
AcDb2dPolyline
 66
     1
 10
0.0
 20
0.0
 30
0.0
  0
VERTEX
  5
17B
330
17A
100
AcDbEntity
  8
_U+56FE_U+5C42 1
 62
   250
420
  2234388
370
    13
100
AcDbVertex
100
AcDb2dVertex
 10
656.2741480757314
 20
303.1378053961811
 30
0.0
  0
VERTEX
  5
17C
330
17A
100
AcDbEntity
  8
_U+56FE_U+5C42 1
 62
   250
420
  2234388
370
    13
100
AcDbVertex
100
AcDb2dVertex
 10
651.7659778565026
 20
303.3256134169097
 30
0.0
  0
VERTEX
  5
17D
330
17A
100
AcDbEntity
  8
_U+56FE_U+5C42 1
 62
   250
420
  2234388
370
    13
100
AcDbVertex
100
AcDb2dVertex
 10
651.780236088721
 20
303.6722180800843
 30
0.0
  0
VERTEX
  5
17E
330
17A
100
AcDbEntity
  8
_U+56FE_U+5C42 1
 62
   250
420
  2234388
370
    13
100
AcDbVertex
100
AcDb2dVertex
 10
656.288406307946
 20
303.4844100593567
 30
0.0
  0
VERTEX
  5
17F
330
17A
100
AcDbEntity
  8
_U+56FE_U+5C42 1
 62
   250
420
  2234388
370
    13
100
AcDbVertex
100
AcDb2dVertex
 10
656.2741480757314
 20
303.1378053961811
 30
0.0
  0
SEQEND
  5
180
330
17A
100
AcDbEntity
  8
_U+56FE_U+5C42 1
 62
   250
420
  2234388
370
    13
  0
POLYLINE
  5
181
330
41
100
AcDbEntity
  8
_U+56FE_U+5C42 1
 62
   250
420
  2234388
370
    13
100
AcDb2dPolyline
 66
     1
 10
0.0
 20
0.0
 30
0.0
  0
VERTEX
  5
182
330
181
100
AcDbEntity
  8
_U+56FE_U+5C42 1
 62
   250
420
  2234388
370
    13
100
AcDbVertex
100
AcDb2dVertex
 10
648.4149869101807
 20
303.4655326312476
 30
0.0
  0
VERTEX
  5
183
330
181
100
AcDbEntity
  8
_U+56FE_U+5C42 1
 62
   250
420
  2234388
370
    13
100
AcDbVertex
100
AcDb2dVertex
 10
643.9068166909518
 20
303.653811998493
 30
0.0
  0
VERTEX
  5
184
330
181
100
AcDbEntity
  8
_U+56FE_U+5C42 1
 62
   250
420
  2234388
370
    13
100
AcDbVertex
100
AcDb2dVertex
 10
643.9215462696893
 20
304.0004166616692
 30
0.0
  0
VERTEX
  5
185
330
181
100
AcDbEntity
  8
_U+56FE_U+5C42 1
 62
   250
420
  2234388
370
    13
100
AcDbVertex
100
AcDb2dVertex
 10
648.4292687097217
 20
303.8121372944234
 30
0.0
  0
VERTEX
  5
186
330
181
100
AcDbEntity
  8
_U+56FE_U+5C42 1
 62
   250
420
  2234388
370
    13
100
AcDbVertex
100
AcDb2dVertex
 10
648.4149869101807
 20
303.4655326312476
 30
0.0
  0
SEQEND
  5
187
330
181
100
AcDbEntity
  8
_U+56FE_U+5C42 1
 62
   250
420
  2234388
370
    13
  0
SPLINE
  5
188
330
41
100
AcDbEntity
  8
_U+56FE_U+5C42 1
 62
   250
420
  2234388
370
    13
100
AcDbSpline
210
0.0
220
0.0
230
1.0
 70
     8
 71
     3
 72
    11
 73
     7
 74
     0
 42
0.0000000001
 43
0.0000000001
 12
1.0
 22
0.0
 32
0.0
 13
1.0
 23
0.0
 33
0.0
 40
0.0
 40
0.0
 40
0.0
 40
0.0
 40
1.0
 40
1.0
 40
1.0
 40
2.0
 40
2.0
 40
2.0
 40
2.0
 10
646.7602071165527
 20
303.5258414184285
 30
0.0
 10
646.7602071165527
 20
303.5258414184285
 30
0.0
 10
648.0622783095746
 20
301.9677347959696
 30
0.0
 10
649.6891072545905
 20
301.8116955306616
 30
0.0
 10
651.3153470164546
 20
301.6551849188347
 30
0.0
 10
652.9995624002312
 20
302.9076468906698
 30
0.0
 10
653.1292533950921
 20
303.2492081460853
 30
0.0
  0
POLYLINE
  5
189
330
41
100
AcDbEntity
  8
_U+56FE_U+5C42 1
 62
   250
420
  2234132
370
    13
100
AcDb2dPolyline
 66
     1
 10
0.0
 20
0.0
 30
0.0
  0
VERTEX
  5
18A
330
189
100
AcDbEntity
  8
_U+56FE_U+5C42 1
 62
   250
420
  2234132
370
    13
100
AcDbVertex
100
AcDb2dVertex
 10
647.2398493348869
 20
317.6298726219296
 30
0.0
  0
VERTEX
  5
18B
330
189
100
AcDbEntity
  8
_U+56FE_U+5C42 1
 62
   250
420
  2234132
370
    13
100
AcDbVertex
100
AcDb2dVertex
 10
647.0215451943382
 20
309.6947775320783
 30
0.0
  0
VERTEX
  5
18C
330
189
100
AcDbEntity
  8
_U+56FE_U+5C42 1
 62
   250
420
  2234132
370
    13
100
AcDbVertex
100
AcDb2dVertex
 10
654.3800185194611
 20
309.6501174493469
 30
0.0
  0
VERTEX
  5
18D
330
189
100
AcDbEntity
  8
_U+56FE_U+5C42 1
 62
   250
420
  2234132
370
    13
100
AcDbVertex
100
AcDb2dVertex
 10
654.3477784175193
 20
317.6298726219296
 30
0.0
  0
VERTEX
  5
18E
330
189
100
AcDbEntity
  8
_U+56FE_U+5C42 1
 62
   250
420
  2234132
370
    13
100
AcDbVertex
100
AcDb2dVertex
 10
647.2398493348869
 20
317.6298726219296
 30
0.0
  0
SEQEND
  5
18F
330
189
100
AcDbEntity
  8
_U+56FE_U+5C42 1
 62
   250
420
  2234132
370
    13
  0
POLYLINE
  5
190
330
41
100
AcDbEntity
  8
_U+56FE_U+5C42 1
 62
   250
420
  2234132
370
    13
100
AcDb2dPolyline
 66
     1
 10
0.0
 20
0.0
 30
0.0
  0
VERTEX
  5
191
330
190
100
AcDbEntity
  8
_U+56FE_U+5C42 1
 62
   250
420
  2234132
370
    13
100
AcDbVertex
100
AcDb2dVertex
 10
648.0356943658745
 20
309.6505887958663
 30
0.0
  0
VERTEX
  5
192
330
190
100
AcDbEntity
  8
_U+56FE_U+5C42 1
 62
   250
420
  2234132
370
    13
100
AcDbVertex
100
AcDb2dVertex
 10
648.1894476005604
 20
314.4275679352103
 30
0.0
  0
VERTEX
  5
193
330
190
100
AcDbEntity
  8
_U+56FE_U+5C42 1
 62
   250
420
  2234132
370
    13
100
AcDbVertex
100
AcDb2dVertex
 10
653.3263940769075
 20
314.1380433355556
 30
0.0
  0
VERTEX
  5
194
330
190
100
AcDbEntity
  8
_U+56FE_U+5C42 1
 62
   250
420
  2234132
370
    13
100
AcDbVertex
100
AcDb2dVertex
 10
653.2154626735235
 20
309.6487505444406
 30
0.0
  0
VERTEX
  5
195
330
190
100
AcDbEntity
  8
_U+56FE_U+5C42 1
 62
   250
420
  2234132
370
    13
100
AcDbVertex
100
AcDb2dVertex
 10
648.0356943658745
 20
309.6505887958663
 30
0.0
  0
SEQEND
  5
196
330
190
100
AcDbEntity
  8
_U+56FE_U+5C42 1
 62
   250
420
  2234132
370
    13
  0
POLYLINE
  5
197
330
41
100
AcDbEntity
  8
_U+56FE_U+5C42 1
 62
   250
420
  2234132
370
    13
100
AcDb2dPolyline
 66
     1
 10
0.0
 20
0.0
 30
0.0
  0
VERTEX
  5
198
330
197
100
AcDbEntity
  8
_U+56FE_U+5C42 1
 62
   250
420
  2234132
370
    13
100
AcDbVertex
100
AcDb2dVertex
 10
652.2884183388077
 20
317.6298726219296
 30
0.0
  0
VERTEX
  5
199
330
197
100
AcDbEntity
  8
_U+56FE_U+5C42 1
 62
   250
420
  2234132
370
    13
100
AcDbVertex
100
AcDb2dVertex
 10
654.3919671537326
 20
315.7481630464504
 30
0.0
  0
SEQEND
  5
19A
330
197
100
AcDbEntity
  8
_U+56FE_U+5C42 1
 62
   250
420
  2234132
370
    13
  0
POLYLINE
  5
19B
330
41
100
AcDbEntity
  8
_U+56FE_U+5C42 1
 62
   250
420
  2234132
370
    13
100
AcDb2dPolyline
 66
     1
 10
0.0
 20
0.0
 30
0.0
  0
VERTEX
  5
19C
330
19B
100
AcDbEntity
  8
_U+56FE_U+5C42 1
 62
   250
420
  2234132
370
    13
100
AcDbVertex
100
AcDb2dVertex
 10
651.3245382735894
 20
316.9730276795646
 30
0.0
  0
VERTEX
  5
19D
330
19B
100
AcDbEntity
  8
_U+56FE_U+5C42 1
 62
   250
420
  2234132
370
    13
100
AcDbVertex
100
AcDb2dVertex
 10
654.3602219656361
 20
314.523321980663
 30
0.0
  0
SEQEND
  5
19E
330
19B
100
AcDbEntity
  8
_U+56FE_U+5C42 1
 62
   250
420
  2234132
370
    13
  0
POLYLINE
  5
19F
330
41
100
AcDbEntity
  8
_U+56FE_U+5C42 1
 62
   250
420
  2234132
370
    13
100
AcDb2dPolyline
 66
     1
 10
0.0
 20
0.0
 30
0.0
  0
VERTEX
  5
1A0
330
19F
100
AcDbEntity
  8
_U+56FE_U+5C42 1
 62
   250
420
  2234132
370
    13
100
AcDbVertex
100
AcDb2dVertex
 10
647.199337101522
 20
315.7481630464504
 30
0.0
  0
VERTEX
  5
1A1
330
19F
100
AcDbEntity
  8
_U+56FE_U+5C42 1
 62
   250
420
  2234132
370
    13
100
AcDbVertex
100
AcDb2dVertex
 10
650.1857650822758
 20
317.6298726219296
 30
0.0
  0
SEQEND
  5
1A2
330
19F
100
AcDbEntity
  8
_U+56FE_U+5C42 1
 62
   250
420
  2234132
370
    13
  0
POLYLINE
  5
1A3
330
41
100
AcDbEntity
  8
_U+56FE_U+5C42 1
 62
   250
420
  2234132
370
    13
100
AcDb2dPolyline
 66
     1
 10
0.0
 20
0.0
 30
0.0
  0
VERTEX
  5
1A4
330
1A3
100
AcDbEntity
  8
_U+56FE_U+5C42 1
 62
   250
420
  2234132
370
    13
100
AcDbVertex
100
AcDb2dVertex
 10
647.1468762338927
 20
314.2448268895682
 30
0.0
  0
VERTEX
  5
1A5
330
1A3
100
AcDbEntity
  8
_U+56FE_U+5C42 1
 62
   250
420
  2234132
370
    13
100
AcDbVertex
100
AcDb2dVertex
 10
651.3245382735894
 20
316.9730276795646
 30
0.0
  0
SEQEND
  5
1A6
330
1A3
100
AcDbEntity
  8
_U+56FE_U+5C42 1
 62
   250
420
  2234132
370
    13
  0
POLYLINE
  5
1A7
330
41
100
AcDbEntity
  8
_U+56FE_U+5C42 1
 62
   250
420
  2234132
370
    13
100
AcDb2dPolyline
 66
     1
 10
0.0
 20
0.0
 30
0.0
  0
VERTEX
  5
1A8
330
1A7
100
AcDbEntity
  8
_U+56FE_U+5C42 1
 62
   250
420
  2234132
370
    13
100
AcDbVertex
100
AcDb2dVertex
 10
647.1468762338927
 20
313.535968858766
 30
0.0
  0
VERTEX
  5
1A9
330
1A7
100
AcDbEntity
  8
_U+56FE_U+5C42 1
 62
   250
420
  2234132
370
    13
100
AcDbVertex
100
AcDb2dVertex
 10
654.3919671537326
 20
313.1824589690782
 30
0.0
  0
SEQEND
  5
1AA
330
1A7
100
AcDbEntity
  8
_U+56FE_U+5C42 1
 62
   250
420
  2234132
370
    13
  0
POLYLINE
  5
1AB
330
41
100
AcDbEntity
  8
_U+56FE_U+5C42 1
 62
   250
420
  2234132
370
    13
100
AcDb2dPolyline
 66
     1
 10
0.0
 20
0.0
 30
0.0
  0
VERTEX
  5
1AC
330
1AB
100
AcDbEntity
  8
_U+56FE_U+5C42 1
 62
   250
420
  2234132
370
    13
100
AcDbVertex
100
AcDb2dVertex
 10
647.0658517671808
 20
312.5048983471783
 30
0.0
  0
VERTEX
  5
1AD
330
1AB
100
AcDbEntity
  8
_U+56FE_U+5C42 1
 62
   250
420
  2234132
370
    13
100
AcDbVertex
100
AcDb2dVertex
 10
654.2979570903972
 20
312.1256058028712
 30
0.0
  0
SEQEND
  5
1AE
330
1AB
100
AcDbEntity
  8
_U+56FE_U+5C42 1
 62
   250
420
  2234132
370
    13
  0
POLYLINE
  5
1AF
330
41
100
AcDbEntity
  8
_U+56FE_U+5C42 1
 62
   250
420
  2234132
370
    13
100
AcDb2dPolyline
 66
     1
 10
0.0
 20
0.0
 30
0.0
  0
VERTEX
  5
1B0
330
1AF
100
AcDbEntity
  8
_U+56FE_U+5C42 1
 62
   250
420
  2234132
370
    13
100
AcDbVertex
100
AcDb2dVertex
 10
647.1026874976827
 20
311.3854503631678
 30
0.0
  0
VERTEX
  5
1B1
330
1AF
100
AcDbEntity
  8
_U+56FE_U+5C42 1
 62
   250
420
  2234132
370
    13
100
AcDbVertex
100
AcDb2dVertex
 10
654.4056833374489
 20
311.0618709774748
 30
0.0
  0
SEQEND
  5
1B2
330
1AF
100
AcDbEntity
  8
_U+56FE_U+5C42 1
 62
   250
420
  2234132
370
    13
  0
POLYLINE
  5
1B3
330
41
100
AcDbEntity
  8
_U+56FE_U+5C42 1
 62
   250
420
  2234132
370
    13
100
AcDb2dPolyline
 66
     1
 10
0.0
 20
0.0
 30
0.0
  0
VERTEX
  5
1B4
330
1B3
100
AcDbEntity
  8
_U+56FE_U+5C42 1
 62
   250
420
  2234132
370
    13
100
AcDbVertex
100
AcDb2dVertex
 10
647.0658517671808
 20
310.4137695130497
 30
0.0
  0
VERTEX
  5
1B5
330
1B3
100
AcDbEntity
  8
_U+56FE_U+5C42 1
 62
   250
420
  2234132
370
    13
100
AcDbVertex
100
AcDb2dVertex
 10
654.3919671537326
 20
310.1569092272015
 30
0.0
  0
SEQEND
  5
1B6
330
1B3
100
AcDbEntity
  8
_U+56FE_U+5C42 1
 62
   250
420
  2234132
370
    13
  0
POLYLINE
  5
1B7
330
41
100
AcDbEntity
  8
_U+56FE_U+5C42 1
 62
   250
420
  2234132
370
    13
100
AcDb2dPolyline
 66
     1
 10
0.0
 20
0.0
 30
0.0
  0
VERTEX
  5
1B8
330
1B7
100
AcDbEntity
  8
_U+56FE_U+5C42 1
 62
   250
420
  2234132
370
    13
100
AcDbVertex
100
AcDb2dVertex
 10
648.4292687097217
 20
303.8121372944234
 30
0.0
  0
VERTEX
  5
1B9
330
1B7
100
AcDbEntity
  8
_U+56FE_U+5C42 1
 62
   250
420
  2234132
370
    13
100
AcDbVertex
100
AcDb2dVertex
 10
648.5925431441069
 20
306.9688863400248
 30
0.0
  0
VERTEX
  5
1BA
330
1B7
100
AcDbEntity
  8
_U+56FE_U+5C42 1
 62
   250
420
  2234132
370
    13
100
AcDbVertex
100
AcDb2dVertex
 10
649.4755165792415
 20
307.2869509714405
 30
0.0
  0
VERTEX
  5
1BB
330
1B7
100
AcDbEntity
  8
_U+56FE_U+5C42 1
 62
   250
420
  2234132
370
    13
100
AcDbVertex
100
AcDb2dVertex
 10
648.4895539295782
 20
307.8144584288324
 30
0.0
  0
VERTEX
  5
1BC
330
1B7
100
AcDbEntity
  8
_U+56FE_U+5C42 1
 62
   250
420
  2234132
370
    13
100
AcDbVertex
100
AcDb2dVertex
 10
649.3153294645643
 20
308.3189406087415
 30
0.0
  0
VERTEX
  5
1BD
330
1B7
100
AcDbEntity
  8
_U+56FE_U+5C42 1
 62
   250
420
  2234132
370
    13
100
AcDbVertex
100
AcDb2dVertex
 10
648.2603381171025
 20
309.0604865206735
 30
0.0
  0
VERTEX
  5
1BE
330
1B7
100
AcDbEntity
  8
_U+56FE_U+5C42 1
 62
   250
420
  2234132
370
    13
100
AcDbVertex
100
AcDb2dVertex
 10
649.4755165792415
 20
309.3049032584048
 30
0.0
  0
VERTEX
  5
1BF
330
1B7
100
AcDbEntity
  8
_U+56FE_U+5C42 1
 62
   250
420
  2234132
370
    13
100
AcDbVertex
100
AcDb2dVertex
 10
648.6032427101059
 20
309.6855627076183
 30
0.0
  0
VERTEX
  5
1C0
330
1B7
100
AcDbEntity
  8
_U+56FE_U+5C42 1
 62
   250
420
  2234132
370
    13
100
AcDbVertex
100
AcDb2dVertex
 10
649.6651628513943
 20
310.0326387173132
 30
0.0
  0
VERTEX
  5
1C1
330
1B7
100
AcDbEntity
  8
_U+56FE_U+5C42 1
 62
   250
420
  2234132
370
    13
100
AcDbVertex
100
AcDb2dVertex
 10
648.765268076211
 20
310.3129484925092
 30
0.0
  0
VERTEX
  5
1C2
330
1B7
100
AcDbEntity
  8
_U+56FE_U+5C42 1
 62
   250
420
  2234132
370
    13
100
AcDbVertex
100
AcDb2dVertex
 10
649.7894569286115
 20
310.7019036404707
 30
0.0
  0
VERTEX
  5
1C3
330
1B7
100
AcDbEntity
  8
_U+56FE_U+5C42 1
 62
   250
420
  2234132
370
    13
100
AcDbVertex
100
AcDb2dVertex
 10
648.9291552610665
 20
311.1143318451043
 30
0.0
  0
VERTEX
  5
1C4
330
1B7
100
AcDbEntity
  8
_U+56FE_U+5C42 1
 62
   250
420
  2234132
370
    13
100
AcDbVertex
100
AcDb2dVertex
 10
649.6651628513943
 20
311.5649626851527
 30
0.0
  0
VERTEX
  5
1C5
330
1B7
100
AcDbEntity
  8
_U+56FE_U+5C42 1
 62
   250
420
  2234132
370
    13
100
AcDbVertex
100
AcDb2dVertex
 10
648.9121160843852
 20
311.8936090459313
 30
0.0
  0
VERTEX
  5
1C6
330
1B7
100
AcDbEntity
  8
_U+56FE_U+5C42 1
 62
   250
420
  2234132
370
    13
100
AcDbVertex
100
AcDb2dVertex
 10
649.8350125697298
 20
312.3083468485133
 30
0.0
  0
VERTEX
  5
1C7
330
1B7
100
AcDbEntity
  8
_U+56FE_U+5C42 1
 62
   250
420
  2234132
370
    13
100
AcDbVertex
100
AcDb2dVertex
 10
649.1675858979971
 20
312.9371231056351
 30
0.0
  0
VERTEX
  5
1C8
330
1B7
100
AcDbEntity
  8
_U+56FE_U+5C42 1
 62
   250
420
  2234132
370
    13
100
AcDbVertex
100
AcDb2dVertex
 10
650.0706858295205
 20
313.2119181265529
 30
0.0
  0
VERTEX
  5
1C9
330
1B7
100
AcDbEntity
  8
_U+56FE_U+5C42 1
 62
   250
420
  2234132
370
    13
100
AcDbVertex
100
AcDb2dVertex
 10
649.0580213995213
 20
313.8011012760314
 30
0.0
  0
VERTEX
  5
1CA
330
1B7
100
AcDbEntity
  8
_U+56FE_U+5C42 1
 62
   250
420
  2234132
370
    13
100
AcDbVertex
100
AcDb2dVertex
 10
650.0900110368219
 20
314.0459893602803
 30
0.0
  0
VERTEX
  5
1CB
330
1B7
100
AcDbEntity
  8
_U+56FE_U+5C42 1
 62
   250
420
  2234132
370
    13
100
AcDbVertex
100
AcDb2dVertex
 10
650.216614711983
 20
316.7143291422929
 30
0.0
  0
VERTEX
  5
1CC
330
1B7
100
AcDbEntity
  8
_U+56FE_U+5C42 1
 62
   250
420
  2234132
370
    13
100
AcDbVertex
100
AcDb2dVertex
 10
652.0923146193365
 20
316.6434386257466
 30
0.0
  0
VERTEX
  5
1CD
330
1B7
100
AcDbEntity
  8
_U+56FE_U+5C42 1
 62
   250
420
  2234132
370
    13
100
AcDbVertex
100
AcDb2dVertex
 10
651.9620580086472
 20
314.0367745358235
 30
0.0
  0
VERTEX
  5
1CE
330
1B7
100
AcDbEntity
  8
_U+56FE_U+5C42 1
 62
   250
420
  2234132
370
    13
100
AcDbVertex
100
AcDb2dVertex
 10
652.9783989415018
 20
313.6699255396326
 30
0.0
  0
VERTEX
  5
1CF
330
1B7
100
AcDbEntity
  8
_U+56FE_U+5C42 1
 62
   250
420
  2234132
370
    13
100
AcDbVertex
100
AcDb2dVertex
 10
651.9753971151571
 20
313.3182539013712
 30
0.0
  0
VERTEX
  5
1D0
330
1B7
100
AcDbEntity
  8
_U+56FE_U+5C42 1
 62
   250
420
  2234132
370
    13
100
AcDbVertex
100
AcDb2dVertex
 10
652.8697771360642
 20
312.7677211664993
 30
0.0
  0
VERTEX
  5
1D1
330
1B7
100
AcDbEntity
  8
_U+56FE_U+5C42 1
 62
   250
420
  2234132
370
    13
100
AcDbVertex
100
AcDb2dVertex
 10
652.0670033112359
 20
312.6300879827799
 30
0.0
  0
VERTEX
  5
1D2
330
1B7
100
AcDbEntity
  8
_U+56FE_U+5C42 1
 62
   250
420
  2234132
370
    13
100
AcDbVertex
100
AcDb2dVertex
 10
652.8697771360642
 20
312.2176597781443
 30
0.0
  0
VERTEX
  5
1D3
330
1B7
100
AcDbEntity
  8
_U+56FE_U+5C42 1
 62
   250
420
  2234132
370
    13
100
AcDbVertex
100
AcDb2dVertex
 10
651.7917369437997
 20
311.5755444145161
 30
0.0
  0
VERTEX
  5
1D4
330
1B7
100
AcDbEntity
  8
_U+56FE_U+5C42 1
 62
   250
420
  2234132
370
    13
100
AcDbVertex
100
AcDb2dVertex
 10
652.3422696786722
 20
311.2086954183252
 30
0.0
  0
VERTEX
  5
1D5
330
1B7
100
AcDbEntity
  8
_U+56FE_U+5C42 1
 62
   250
420
  2234132
370
    13
100
AcDbVertex
100
AcDb2dVertex
 10
651.7461813026814
 20
311.0250352469694
 30
0.0
  0
VERTEX
  5
1D6
330
1B7
100
AcDbEntity
  8
_U+56FE_U+5C42 1
 62
   250
420
  2234132
370
    13
100
AcDbVertex
100
AcDb2dVertex
 10
652.5259298500258
 20
310.2296379951738
 30
0.0
  0
VERTEX
  5
1D7
330
1B7
100
AcDbEntity
  8
_U+56FE_U+5C42 1
 62
   250
420
  2234132
370
    13
100
AcDbVertex
100
AcDb2dVertex
 10
651.2757539088122
 20
309.6947775320783
 30
0.0
  0
VERTEX
  5
1D8
330
1B7
100
AcDbEntity
  8
_U+56FE_U+5C42 1
 62
   250
420
  2234132
370
    13
100
AcDbVertex
100
AcDb2dVertex
 10
652.3882966663095
 20
308.753922744338
 30
0.0
  0
VERTEX
  5
1D9
330
1B7
100
AcDbEntity
  8
_U+56FE_U+5C42 1
 62
   250
420
  2234132
370
    13
100
AcDbVertex
100
AcDb2dVertex
 10
651.4709149352445
 20
308.3189406087415
 30
0.0
  0
VERTEX
  5
1DA
330
1B7
100
AcDbEntity
  8
_U+56FE_U+5C42 1
 62
   250
420
  2234132
370
    13
100
AcDbVertex
100
AcDb2dVertex
 10
652.4996994162134
 20
307.7743939746666
 30
0.0
  0
VERTEX
  5
1DB
330
1B7
100
AcDbEntity
  8
_U+56FE_U+5C42 1
 62
   250
420
  2234132
370
    13
100
AcDbVertex
100
AcDb2dVertex
 10
651.1901338135287
 20
307.2317091593451
 30
0.0
  0
VERTEX
  5
1DC
330
1B7
100
AcDbEntity
  8
_U+56FE_U+5C42 1
 62
   250
420
  2234132
370
    13
100
AcDbVertex
100
AcDb2dVertex
 10
651.9956650154974
 20
306.7507000361106
 30
0.0
  0
VERTEX
  5
1DD
330
1B7
100
AcDbEntity
  8
_U+56FE_U+5C42 1
 62
   250
420
  2234132
370
    13
100
AcDbVertex
100
AcDb2dVertex
 10
651.780236088721
 20
303.6722180800843
 30
0.0
  0
VERTEX
  5
1DE
330
1B7
100
AcDbEntity
  8
_U+56FE_U+5C42 1
 62
   250
420
  2234132
370
    13
100
AcDbVertex
100
AcDb2dVertex
 10
648.4292687097217
 20
303.8121372944234
 30
0.0
  0
SEQEND
  5
1DF
330
1B7
100
AcDbEntity
  8
_U+56FE_U+5C42 1
 62
   250
420
  2234132
370
    13
  0
POLYLINE
  5
1E0
330
41
100
AcDbEntity
  8
_U+56FE_U+5C42 1
 62
   250
420
  2234132
370
    13
100
AcDb2dPolyline
 66
     1
 10
0.0
 20
0.0
 30
0.0
  0
VERTEX
  5
1E1
330
1E0
100
AcDbEntity
  8
_U+56FE_U+5C42 1
 62
   250
420
  2234132
370
    13
100
AcDbVertex
100
AcDb2dVertex
 10
651.5675881064109
 20
319.8572677348717
 30
0.0
  0
VERTEX
  5
1E2
330
1E0
100
AcDbEntity
  8
_U+56FE_U+5C42 1
 62
   250
420
  2234132
370
    13
100
AcDbVertex
100
AcDb2dVertex
 10
649.9487013502536
 20
300.6498970618674
 30
0.0
  0
SEQEND
  5
1E3
330
1E0
100
AcDbEntity
  8
_U+56FE_U+5C42 1
 62
   250
420
  2234132
370
    13
  0
POLYLINE
  5
1E4
330
41
100
AcDbEntity
  8
_U+56FE_U+5C42 1
 62
   250
420
  2234132
370
    13
100
AcDb2dPolyline
 66
     1
 10
0.0
 20
0.0
 30
0.0
  0
VERTEX
  5
1E5
330
1E4
100
AcDbEntity
  8
_U+56FE_U+5C42 1
 62
   250
420
  2234132
370
    13
100
AcDbVertex
100
AcDb2dVertex
 10
650.0900110368219
 20
315.1948965017655
 30
0.0
  0
VERTEX
  5
1E6
330
1E4
100
AcDbEntity
  8
_U+56FE_U+5C42 1
 62
   250
420
  2234132
370
    13
100
AcDbVertex
100
AcDb2dVertex
 10
651.9620580086472
 20
315.0687641731242
 30
0.0
  0
SEQEND
  5
1E7
330
1E4
100
AcDbEntity
  8
_U+56FE_U+5C42 1
 62
   250
420
  2234132
370
    13
  0
POLYLINE
  5
1E8
330
41
100
AcDbEntity
  8
_U+56FE_U+5C42 1
 62
   250
420
  2234132
370
    13
100
AcDb2dPolyline
 66
     1
 10
0.0
 20
0.0
 30
0.0
  0
VERTEX
  5
1E9
330
1E8
100
AcDbEntity
  8
_U+56FE_U+5C42 1
 62
   250
420
  2234132
370
    13
100
AcDbVertex
100
AcDb2dVertex
 10
708.2064948528966
 20
315.2215747147719
 30
0.0
  0
VERTEX
  5
1EA
330
1E8
100
AcDbEntity
  8
_U+56FE_U+5C42 1
 62
   250
420
  2234132
370
    13
100
AcDbVertex
100
AcDb2dVertex
 10
706.3399862026811
 20
315.2215747147719
 30
0.0
  0
VERTEX
  5
1EB
330
1E8
100
AcDbEntity
  8
_U+56FE_U+5C42 1
 62
   250
420
  2234132
370
    13
100
AcDbVertex
100
AcDb2dVertex
 10
691.8281224231073
 20
308.3134022871362
 30
0.0
  0
SEQEND
  5
1EC
330
1E8
100
AcDbEntity
  8
_U+56FE_U+5C42 1
 62
   250
420
  2234132
370
    13
  0
POLYLINE
  5
1ED
330
41
100
AcDbEntity
  8
_U+56FE_U+5C42 1
 62
   250
420
  2234388
370
    13
100
AcDb2dPolyline
 66
     1
 10
0.0
 20
0.0
 30
0.0
  0
VERTEX
  5
1EE
330
1ED
100
AcDbEntity
  8
_U+56FE_U+5C42 1
 62
   250
420
  2234388
370
    13
100
AcDbVertex
100
AcDb2dVertex
 10
636.6564231227746
 20
292.6940862924783
 30
0.0
  0
VERTEX
  5
1EF
330
1ED
100
AcDbEntity
  8
_U+56FE_U+5C42 1
 62
   250
420
  2234388
370
    13
100
AcDbVertex
100
AcDb2dVertex
 10
638.3075028462234
 20
292.6940862924783
 30
0.0
  0
VERTEX
  5
1F0
330
1ED
100
AcDbEntity
  8
_U+56FE_U+5C42 1
 62
   250
420
  2234388
370
    13
100
AcDbVertex
100
AcDb2dVertex
 10
647.9454786420239
 20
302.4639212771334
 30
0.0
  0
SEQEND
  5
1F1
330
1ED
100
AcDbEntity
  8
_U+56FE_U+5C42 1
 62
   250
420
  2234388
370
    13
  0
POLYLINE
  5
1F2
330
41
100
AcDbEntity
  8
_U+56FE_U+5C42 1
 62
   250
420
  2234132
370
    13
100
AcDb2dPolyline
 66
     1
 10
0.0
 20
0.0
 30
0.0
  0
VERTEX
  5
1F3
330
1F2
100
AcDbEntity
  8
_U+56FE_U+5C42 1
 62
   250
420
  2234132
370
    13
100
AcDbVertex
100
AcDb2dVertex
 10
616.8118862245985
 20
294.6024740809658
 30
0.0
  0
VERTEX
  5
1F4
330
1F2
100
AcDbEntity
  8
_U+56FE_U+5C42 1
 62
   250
420
  2234132
370
    13
100
AcDbVertex
100
AcDb2dVertex
 10
617.7483574897068
 20
294.6024740809658
 30
0.0
  0
VERTEX
  5
1F5
330
1F2
100
AcDbEntity
  8
_U+56FE_U+5C42 1
 62
   250
420
  2234132
370
    13
100
AcDbVertex
100
AcDb2dVertex
 10
629.5801213916027
 20
304.4805066591913
 30
0.0
  0
SEQEND
  5
1F6
330
1F2
100
AcDbEntity
  8
_U+56FE_U+5C42 1
 62
   250
420
  2234132
370
    13
  0
POLYLINE
  5
1F7
330
41
100
AcDbEntity
  8
_U+56FE_U+5C42 1
 62
   250
420
  2234132
370
    13
100
AcDb2dPolyline
 66
     1
 10
0.0
 20
0.0
 30
0.0
  0
VERTEX
  5
1F8
330
1F7
100
AcDbEntity
  8
_U+56FE_U+5C42 1
 62
   250
420
  2234132
370
    13
100
AcDbVertex
100
AcDb2dVertex
 10
618.2183135370568
 20
336.1136556853954
 30
0.0
  0
VERTEX
  5
1F9
330
1F7
100
AcDbEntity
  8
_U+56FE_U+5C42 1
 62
   250
420
  2234132
370
    13
100
AcDbVertex
100
AcDb2dVertex
 10
619.613475667694
 20
336.1136556853954
 30
0.0
  0
VERTEX
  5
1FA
330
1F7
100
AcDbEntity
  8
_U+56FE_U+5C42 1
 62
   250
420
  2234132
370
    13
100
AcDbVertex
100
AcDb2dVertex
 10
625.6484786678049
 20
327.4908660234735
 30
0.0
  0
SEQEND
  5
1FB
330
1F7
100
AcDbEntity
  8
_U+56FE_U+5C42 1
 62
   250
420
  2234132
370
    13
  0
ENDBLK
  5
44
330
41
100
AcDbEntity
  8
0
100
AcDbBlockEnd
  0
BLOCK
  5
47
330
45
100
AcDbEntity
  8
0
100
AcDbBlockBegin
  2
block 3
 70
     0
 10
0.0
 20
0.0
 30
0.0
  3
block 3
  1

  0
INSERT
  5
4A
330
45
100
AcDbEntity
  8
_U+56FE_U+5C42 1
100
AcDbBlockReference
  2
block 4
 10
0.0
 20
0.0
 30
0.0
  0
SPLINE
  5
8B
330
45
100
AcDbEntity
  8
_U+56FE_U+5C42 1
370
     0
100
AcDbSpline
210
0.0
220
0.0
230
1.0
 70
    11
 71
     3
 72
    23
 73
    19
 74
     0
 42
0.0000000001
 43
0.0000000001
 12
1.0
 22
0.0
 32
0.0
 13
1.0
 23
0.0
 33
0.0
 40
0.0
 40
0.0
 40
0.0
 40
0.0
 40
1.0
 40
1.0
 40
1.0
 40
2.0
 40
2.0
 40
2.0
 40
3.0
 40
3.0
 40
3.0
 40
4.0
 40
4.0
 40
4.0
 40
5.0
 40
5.0
 40
5.0
 40
6.0
 40
6.0
 40
6.0
 40
6.0
 10
605.4192287403456
 20
325.6864808445311
 30
0.0
 10
605.4192287403456
 20
325.6864808445311
 30
0.0
 10
607.1161233454942
 20
324.038629844743
 30
0.0
 10
606.7032473616674
 20
322.0436792679351
 30
0.0
 10
606.2905834837726
 20
320.0487522584509
 30
0.0
 10
603.6970228270932
 20
312.478196566844
 30
0.0
 10
608.1690643355892
 20
309.58844175726
 30
0.0
 10
608.1690643355892
 20
309.58844175726
 30
0.0
 10
687.9528527430484
 20
309.6947775320783
 30
0.0
 10
687.9528527430484
 20
309.6947775320783
 30
0.0
 10
687.9528527430484
 20
309.6947775320783
 30
0.0
 10
688.4550488923436
 20
321.696155479046
 30
0.0
 10
688.4550488923436
 20
321.696155479046
 30
0.0
 10
688.4550488923436
 20
321.696155479046
 30
0.0
 10
688.5980789937073
 20
325.7477087574238
 30
0.0
 10
685.846075204468
 20
325.8397627326992
 30
0.0
 10
683.0939535786036
 20
325.9313689287796
 30
0.0
 10
605.4192287403456
 20
325.6864808445311
 30
0.0
 10
605.4192287403456
 20
325.6864808445311
 30
0.0
  0
ENDBLK
  5
48
330
45
100
AcDbEntity
  8
0
100
AcDbBlockEnd
  0
BLOCK
  5
4B
330
49
100
AcDbEntity
  8
0
100
AcDbBlockBegin
  2
block 4
 70
     0
 10
0.0
 20
0.0
 30
0.0
  3
block 4
  1

  0
POLYLINE
  5
4D
330
49
100
AcDbEntity
  8
_U+56FE_U+5C42 1
 62
   250
420
  2234388
370
    13
100
AcDb2dPolyline
 66
     1
 10
0.0
 20
0.0
 30
0.0
  0
VERTEX
  5
4E
330
4D
100
AcDbEntity
  8
_U+56FE_U+5C42 1
 62
   250
420
  2234388
370
    13
100
AcDbVertex
100
AcDb2dVertex
 10
579.4376423205694
 20
306.2273404280903
 30
0.0
  0
VERTEX
  5
4F
330
4D
100
AcDbEntity
  8
_U+56FE_U+5C42 1
 62
   250
420
  2234388
370
    13
100
AcDbVertex
100
AcDb2dVertex
 10
614.7739017105514
 20
329.221579741403
 30
0.0
  0
SEQEND
  5
50
330
4D
100
AcDbEntity
  8
_U+56FE_U+5C42 1
 62
   250
420
  2234388
370
    13
  0
SPLINE
  5
51
330
49
100
AcDbEntity
  8
_U+56FE_U+5C42 1
 62
   250
420
  2234388
370
    13
100
AcDbSpline
210
0.0
220
0.0
230
1.0
 70
    27
 71
     3
 72
    11
 73
     7
 74
     0
 42
0.0000000001
 43
0.0000000001
 12
1.0
 22
0.0
 32
0.0
 13
1.0
 23
0.0
 33
0.0
 40
0.0
 40
0.0
 40
0.0
 40
0.0
 40
1.0
 40
1.0
 40
1.0
 40
2.0
 40
2.0
 40
2.0
 40
2.0
 10
581.7041591946343
 20
306.2273404280903
 30
0.0
 10
581.7041591946343
 20
306.2273404280903
 30
0.0
 10
617.0404185846195
 20
329.221579741403
 30
0.0
 10
617.0404185846195
 20
329.221579741403
 30
0.0
 10
617.0404185846195
 20
329.221579741403
 30
0.0
 10
581.7041591946343
 20
306.2273404280903
 30
0.0
 10
581.7041591946343
 20
306.2273404280903
 30
0.0
  0
SPLINE
  5
52
330
49
100
AcDbEntity
  8
_U+56FE_U+5C42 1
 62
   250
420
  2234388
370
    13
100
AcDbSpline
210
0.0
220
0.0
230
1.0
 70
    27
 71
     3
 72
    11
 73
     7
 74
     0
 42
0.0000000001
 43
0.0000000001
 12
1.0
 22
0.0
 32
0.0
 13
1.0
 23
0.0
 33
0.0
 40
0.0
 40
0.0
 40
0.0
 40
0.0
 40
1.0
 40
1.0
 40
1.0
 40
2.0
 40
2.0
 40
2.0
 40
2.0
 10
583.9623803699568
 20
306.2273404280903
 30
0.0
 10
583.9623803699568
 20
306.2273404280903
 30
0.0
 10
619.2986397599426
 20
329.221579741403
 30
0.0
 10
619.2986397599426
 20
329.221579741403
 30
0.0
 10
619.2986397599426
 20
329.221579741403
 30
0.0
 10
583.9623803699568
 20
306.2273404280903
 30
0.0
 10
583.9623803699568
 20
306.2273404280903
 30
0.0
  0
SPLINE
  5
53
330
49
100
AcDbEntity
  8
_U+56FE_U+5C42 1
 62
   250
420
  2234388
370
    13
100
AcDbSpline
210
0.0
220
0.0
230
1.0
 70
    27
 71
     3
 72
    11
 73
     7
 74
     0
 42
0.0000000001
 43
0.0000000001
 12
1.0
 22
0.0
 32
0.0
 13
1.0
 23
0.0
 33
0.0
 40
0.0
 40
0.0
 40
0.0
 40
0.0
 40
1.0
 40
1.0
 40
1.0
 40
2.0
 40
2.0
 40
2.0
 40
2.0
 10
586.2859773075451
 20
306.2273404280903
 30
0.0
 10
586.2859773075451
 20
306.2273404280903
 30
0.0
 10
621.6222366975309
 20
329.221579741403
 30
0.0
 10
621.6222366975309
 20
329.221579741403
 30
0.0
 10
621.6222366975309
 20
329.221579741403
 30
0.0
 10
586.2859773075451
 20
306.2273404280903
 30
0.0
 10
586.2859773075451
 20
306.2273404280903
 30
0.0
  0
SPLINE
  5
54
330
49
100
AcDbEntity
  8
_U+56FE_U+5C42 1
 62
   250
420
  2234388
370
    13
100
AcDbSpline
210
0.0
220
0.0
230
1.0
 70
    27
 71
     3
 72
    11
 73
     7
 74
     0
 42
0.0000000001
 43
0.0000000001
 12
1.0
 22
0.0
 32
0.0
 13
1.0
 23
0.0
 33
0.0
 40
0.0
 40
0.0
 40
0.0
 40
0.0
 40
1.0
 40
1.0
 40
1.0
 40
2.0
 40
2.0
 40
2.0
 40
2.0
 10
588.5504202569243
 20
306.2273404280903
 30
0.0
 10
588.5504202569243
 20
306.2273404280903
 30
0.0
 10
623.8866796469102
 20
329.221579741403
 30
0.0
 10
623.8866796469102
 20
329.221579741403
 30
0.0
 10
623.8866796469102
 20
329.221579741403
 30
0.0
 10
588.5504202569243
 20
306.2273404280903
 30
0.0
 10
588.5504202569243
 20
306.2273404280903
 30
0.0
  0
SPLINE
  5
55
330
49
100
AcDbEntity
  8
_U+56FE_U+5C42 1
 62
   250
420
  2234388
370
    13
100
AcDbSpline
210
0.0
220
0.0
230
1.0
 70
    27
 71
     3
 72
    11
 73
     7
 74
     0
 42
0.0000000001
 43
0.0000000001
 12
1.0
 22
0.0
 32
0.0
 13
1.0
 23
0.0
 33
0.0
 40
0.0
 40
0.0
 40
0.0
 40
0.0
 40
1.0
 40
1.0
 40
1.0
 40
2.0
 40
2.0
 40
2.0
 40
2.0
 10
590.5782708208005
 20
306.2273404280903
 30
0.0
 10
590.5782708208005
 20
306.2273404280903
 30
0.0
 10
625.9145302107831
 20
329.221579741403
 30
0.0
 10
625.9145302107831
 20
329.221579741403
 30
0.0
 10
625.9145302107831
 20
329.221579741403
 30
0.0
 10
590.5782708208005
 20
306.2273404280903
 30
0.0
 10
590.5782708208005
 20
306.2273404280903
 30
0.0
  0
SPLINE
  5
56
330
49
100
AcDbEntity
  8
_U+56FE_U+5C42 1
 62
   250
420
  2234388
370
    13
100
AcDbSpline
210
0.0
220
0.0
230
1.0
 70
    27
 71
     3
 72
    11
 73
     7
 74
     0
 42
0.0000000001
 43
0.0000000001
 12
1.0
 22
0.0
 32
0.0
 13
1.0
 23
0.0
 33
0.0
 40
0.0
 40
0.0
 40
0.0
 40
0.0
 40
1.0
 40
1.0
 40
1.0
 40
2.0
 40
2.0
 40
2.0
 40
2.0
 10
592.5895535545156
 20
306.2273404280903
 30
0.0
 10
592.5895535545156
 20
306.2273404280903
 30
0.0
 10
627.9258129444937
 20
329.221579741403
 30
0.0
 10
627.9258129444937
 20
329.221579741403
 30
0.0
 10
627.9258129444937
 20
329.221579741403
 30
0.0
 10
592.5895535545156
 20
306.2273404280903
 30
0.0
 10
592.5895535545156
 20
306.2273404280903
 30
0.0
  0
SPLINE
  5
57
330
49
100
AcDbEntity
  8
_U+56FE_U+5C42 1
 62
   250
420
  2234388
370
    13
100
AcDbSpline
210
0.0
220
0.0
230
1.0
 70
    27
 71
     3
 72
    11
 73
     7
 74
     0
 42
0.0000000001
 43
0.0000000001
 12
1.0
 22
0.0
 32
0.0
 13
1.0
 23
0.0
 33
0.0
 40
0.0
 40
0.0
 40
0.0
 40
0.0
 40
1.0
 40
1.0
 40
1.0
 40
2.0
 40
2.0
 40
2.0
 40
2.0
 10
594.5725083624012
 20
306.2273404280903
 30
0.0
 10
594.5725083624012
 20
306.2273404280903
 30
0.0
 10
629.9090034256413
 20
329.221579741403
 30
0.0
 10
629.9090034256413
 20
329.221579741403
 30
0.0
 10
629.9090034256413
 20
329.221579741403
 30
0.0
 10
594.5725083624012
 20
306.2273404280903
 30
0.0
 10
594.5725083624012
 20
306.2273404280903
 30
0.0
  0
SPLINE
  5
58
330
49
100
AcDbEntity
  8
_U+56FE_U+5C42 1
 62
   250
420
  2234388
370
    13
100
AcDbSpline
210
0.0
220
0.0
230
1.0
 70
    27
 71
     3
 72
    11
 73
     7
 74
     0
 42
0.0000000001
 43
0.0000000001
 12
1.0
 22
0.0
 32
0.0
 13
1.0
 23
0.0
 33
0.0
 40
0.0
 40
0.0
 40
0.0
 40
0.0
 40
1.0
 40
1.0
 40
1.0
 40
2.0
 40
2.0
 40
2.0
 40
2.0
 10
596.5402858123533
 20
306.2273404280903
 30
0.0
 10
596.5402858123533
 20
306.2273404280903
 30
0.0
 10
631.8768987122295
 20
329.221579741403
 30
0.0
 10
631.8768987122295
 20
329.221579741403
 30
0.0
 10
631.8768987122295
 20
329.221579741403
 30
0.0
 10
596.5402858123533
 20
306.2273404280903
 30
0.0
 10
596.5402858123533
 20
306.2273404280903
 30
0.0
  0
SPLINE
  5
59
330
49
100
AcDbEntity
  8
_U+56FE_U+5C42 1
 62
   250
420
  2234388
370
    13
100
AcDbSpline
210
0.0
220
0.0
230
1.0
 70
    27
 71
     3
 72
    11
 73
     7
 74
     0
 42
0.0000000001
 43
0.0000000001
 12
1.0
 22
0.0
 32
0.0
 13
1.0
 23
0.0
 33
0.0
 40
0.0
 40
0.0
 40
0.0
 40
0.0
 40
1.0
 40
1.0
 40
1.0
 40
2.0
 40
2.0
 40
2.0
 40
2.0
 10
598.6160016152917
 20
306.2273404280903
 30
0.0
 10
598.6160016152917
 20
306.2273404280903
 30
0.0
 10
633.9523788419062
 20
329.221579741403
 30
0.0
 10
633.9523788419062
 20
329.221579741403
 30
0.0
 10
633.9523788419062
 20
329.221579741403
 30
0.0
 10
598.6160016152917
 20
306.2273404280903
 30
0.0
 10
598.6160016152917
 20
306.2273404280903
 30
0.0
  0
SPLINE
  5
5A
330
49
100
AcDbEntity
  8
_U+56FE_U+5C42 1
 62
   250
420
  2234388
370
    13
100
AcDbSpline
210
0.0
220
0.0
230
1.0
 70
    27
 71
     3
 72
    11
 73
     7
 74
     0
 42
0.0000000001
 43
0.0000000001
 12
1.0
 22
0.0
 32
0.0
 13
1.0
 23
0.0
 33
0.0
 40
0.0
 40
0.0
 40
0.0
 40
0.0
 40
1.0
 40
1.0
 40
1.0
 40
2.0
 40
2.0
 40
2.0
 40
2.0
 10
600.5557103800105
 20
306.2273404280903
 30
0.0
 10
600.5557103800105
 20
306.2273404280903
 30
0.0
 10
635.8918519333598
 20
329.221579741403
 30
0.0
 10
635.8918519333598
 20
329.221579741403
 30
0.0
 10
635.8918519333598
 20
329.221579741403
 30
0.0
 10
600.5557103800105
 20
306.2273404280903
 30
0.0
 10
600.5557103800105
 20
306.2273404280903
 30
0.0
  0
SPLINE
  5
5B
330
49
100
AcDbEntity
  8
_U+56FE_U+5C42 1
 62
   250
420
  2234388
370
    13
100
AcDbSpline
210
0.0
220
0.0
230
1.0
 70
    27
 71
     3
 72
    11
 73
     7
 74
     0
 42
0.0000000001
 43
0.0000000001
 12
1.0
 22
0.0
 32
0.0
 13
1.0
 23
0.0
 33
0.0
 40
0.0
 40
0.0
 40
0.0
 40
0.0
 40
1.0
 40
1.0
 40
1.0
 40
2.0
 40
2.0
 40
2.0
 40
2.0
 10
602.4887495914683
 20
306.2273404280903
 30
0.0
 10
602.4887495914683
 20
306.2273404280903
 30
0.0
 10
637.8251268180798
 20
329.221579741403
 30
0.0
 10
637.8251268180798
 20
329.221579741403
 30
0.0
 10
637.8251268180798
 20
329.221579741403
 30
0.0
 10
602.4887495914683
 20
306.2273404280903
 30
0.0
 10
602.4887495914683
 20
306.2273404280903
 30
0.0
  0
SPLINE
  5
5C
330
49
100
AcDbEntity
  8
_U+56FE_U+5C42 1
 62
   250
420
  2234388
370
    13
100
AcDbSpline
210
0.0
220
0.0
230
1.0
 70
    27
 71
     3
 72
    11
 73
     7
 74
     0
 42
0.0000000001
 43
0.0000000001
 12
1.0
 22
0.0
 32
0.0
 13
1.0
 23
0.0
 33
0.0
 40
0.0
 40
0.0
 40
0.0
 40
0.0
 40
1.0
 40
1.0
 40
1.0
 40
2.0
 40
2.0
 40
2.0
 40
2.0
 10
604.3156651340487
 20
306.2273404280903
 30
0.0
 10
604.3156651340487
 20
306.2273404280903
 30
0.0
 10
639.6520423606594
 20
329.221579741403
 30
0.0
 10
639.6520423606594
 20
329.221579741403
 30
0.0
 10
639.6520423606594
 20
329.221579741403
 30
0.0
 10
604.3156651340487
 20
306.2273404280903
 30
0.0
 10
604.3156651340487
 20
306.2273404280903
 30
0.0
  0
SPLINE
  5
5D
330
49
100
AcDbEntity
  8
_U+56FE_U+5C42 1
 62
   250
420
  2234388
370
    13
100
AcDbSpline
210
0.0
220
0.0
230
1.0
 70
    27
 71
     3
 72
    11
 73
     7
 74
     0
 42
0.0000000001
 43
0.0000000001
 12
1.0
 22
0.0
 32
0.0
 13
1.0
 23
0.0
 33
0.0
 40
0.0
 40
0.0
 40
0.0
 40
0.0
 40
1.0
 40
1.0
 40
1.0
 40
2.0
 40
2.0
 40
2.0
 40
2.0
 10
606.2185381682534
 20
306.2273404280903
 30
0.0
 10
606.2185381682534
 20
306.2273404280903
 30
0.0
 10
641.5549153948681
 20
329.221579741403
 30
0.0
 10
641.5549153948681
 20
329.221579741403
 30
0.0
 10
641.5549153948681
 20
329.221579741403
 30
0.0
 10
606.2185381682534
 20
306.2273404280903
 30
0.0
 10
606.2185381682534
 20
306.2273404280903
 30
0.0
  0
SPLINE
  5
5E
330
49
100
AcDbEntity
  8
_U+56FE_U+5C42 1
 62
   250
420
  2234388
370
    13
100
AcDbSpline
210
0.0
220
0.0
230
1.0
 70
    27
 71
     3
 72
    11
 73
     7
 74
     0
 42
0.0000000001
 43
0.0000000001
 12
1.0
 22
0.0
 32
0.0
 13
1.0
 23
0.0
 33
0.0
 40
0.0
 40
0.0
 40
0.0
 40
0.0
 40
1.0
 40
1.0
 40
1.0
 40
2.0
 40
2.0
 40
2.0
 40
2.0
 10
608.2463887321302
 20
306.2273404280903
 30
0.0
 10
608.2463887321302
 20
306.2273404280903
 30
0.0
 10
643.5827659587449
 20
329.221579741403
 30
0.0
 10
643.5827659587449
 20
329.221579741403
 30
0.0
 10
643.5827659587449
 20
329.221579741403
 30
0.0
 10
608.2463887321302
 20
306.2273404280903
 30
0.0
 10
608.2463887321302
 20
306.2273404280903
 30
0.0
  0
SPLINE
  5
5F
330
49
100
AcDbEntity
  8
_U+56FE_U+5C42 1
 62
   250
420
  2234388
370
    13
100
AcDbSpline
210
0.0
220
0.0
230
1.0
 70
    27
 71
     3
 72
    11
 73
     7
 74
     0
 42
0.0000000001
 43
0.0000000001
 12
1.0
 22
0.0
 32
0.0
 13
1.0
 23
0.0
 33
0.0
 40
0.0
 40
0.0
 40
0.0
 40
0.0
 40
1.0
 40
1.0
 40
1.0
 40
2.0
 40
2.0
 40
2.0
 40
2.0
 10
610.2576714658414
 20
306.2273404280903
 30
0.0
 10
610.2576714658414
 20
306.2273404280903
 30
0.0
 10
645.5938130191946
 20
329.221579741403
 30
0.0
 10
645.5938130191946
 20
329.221579741403
 30
0.0
 10
645.5938130191946
 20
329.221579741403
 30
0.0
 10
610.2576714658414
 20
306.2273404280903
 30
0.0
 10
610.2576714658414
 20
306.2273404280903
 30
0.0
  0
SPLINE
  5
60
330
49
100
AcDbEntity
  8
_U+56FE_U+5C42 1
 62
   250
420
  2234388
370
    13
100
AcDbSpline
210
0.0
220
0.0
230
1.0
 70
    27
 71
     3
 72
    11
 73
     7
 74
     0
 42
0.0000000001
 43
0.0000000001
 12
1.0
 22
0.0
 32
0.0
 13
1.0
 23
0.0
 33
0.0
 40
0.0
 40
0.0
 40
0.0
 40
0.0
 40
1.0
 40
1.0
 40
1.0
 40
2.0
 40
2.0
 40
2.0
 40
2.0
 10
612.2408619469892
 20
306.2273404280903
 30
0.0
 10
612.2408619469892
 20
306.2273404280903
 30
0.0
 10
647.5772391735999
 20
329.221579741403
 30
0.0
 10
647.5772391735999
 20
329.221579741403
 30
0.0
 10
647.5772391735999
 20
329.221579741403
 30
0.0
 10
612.2408619469892
 20
306.2273404280903
 30
0.0
 10
612.2408619469892
 20
306.2273404280903
 30
0.0
  0
SPLINE
  5
61
330
49
100
AcDbEntity
  8
_U+56FE_U+5C42 1
 62
   250
420
  2234388
370
    13
100
AcDbSpline
210
0.0
220
0.0
230
1.0
 70
    27
 71
     3
 72
    11
 73
     7
 74
     0
 42
0.0000000001
 43
0.0000000001
 12
1.0
 22
0.0
 32
0.0
 13
1.0
 23
0.0
 33
0.0
 40
0.0
 40
0.0
 40
0.0
 40
0.0
 40
1.0
 40
1.0
 40
1.0
 40
2.0
 40
2.0
 40
2.0
 40
2.0
 10
614.2084272910063
 20
306.2273404280903
 30
0.0
 10
614.2084272910063
 20
306.2273404280903
 30
0.0
 10
649.5449223542497
 20
329.221579741403
 30
0.0
 10
649.5449223542497
 20
329.221579741403
 30
0.0
 10
649.5449223542497
 20
329.221579741403
 30
0.0
 10
614.2084272910063
 20
306.2273404280903
 30
0.0
 10
614.2084272910063
 20
306.2273404280903
 30
0.0
  0
SPLINE
  5
62
330
49
100
AcDbEntity
  8
_U+56FE_U+5C42 1
 62
   250
420
  2234388
370
    13
100
AcDbSpline
210
0.0
220
0.0
230
1.0
 70
    27
 71
     3
 72
    11
 73
     7
 74
     0
 42
0.0000000001
 43
0.0000000001
 12
1.0
 22
0.0
 32
0.0
 13
1.0
 23
0.0
 33
0.0
 40
0.0
 40
0.0
 40
0.0
 40
0.0
 40
1.0
 40
1.0
 40
1.0
 40
2.0
 40
2.0
 40
2.0
 40
2.0
 10
616.2841430939477
 20
306.2273404280903
 30
0.0
 10
616.2841430939477
 20
306.2273404280903
 30
0.0
 10
651.6205203205592
 20
329.221579741403
 30
0.0
 10
651.6205203205592
 20
329.221579741403
 30
0.0
 10
651.6205203205592
 20
329.221579741403
 30
0.0
 10
616.2841430939477
 20
306.2273404280903
 30
0.0
 10
616.2841430939477
 20
306.2273404280903
 30
0.0
  0
SPLINE
  5
63
330
49
100
AcDbEntity
  8
_U+56FE_U+5C42 1
 62
   250
420
  2234388
370
    13
100
AcDbSpline
210
0.0
220
0.0
230
1.0
 70
    27
 71
     3
 72
    11
 73
     7
 74
     0
 42
0.0000000001
 43
0.0000000001
 12
1.0
 22
0.0
 32
0.0
 13
1.0
 23
0.0
 33
0.0
 40
0.0
 40
0.0
 40
0.0
 40
0.0
 40
1.0
 40
1.0
 40
1.0
 40
2.0
 40
2.0
 40
2.0
 40
2.0
 10
618.2238518586628
 20
306.2273404280903
 30
0.0
 10
618.2238518586628
 20
306.2273404280903
 30
0.0
 10
653.5602290852742
 20
329.221579741403
 30
0.0
 10
653.5602290852742
 20
329.221579741403
 30
0.0
 10
653.5602290852742
 20
329.221579741403
 30
0.0
 10
618.2238518586628
 20
306.2273404280903
 30
0.0
 10
618.2238518586628
 20
306.2273404280903
 30
0.0
  0
POLYLINE
  5
64
330
49
100
AcDbEntity
  8
_U+56FE_U+5C42 1
 62
   250
420
  2234388
370
    13
100
AcDb2dPolyline
 66
     1
 10
0.0
 20
0.0
 30
0.0
  0
VERTEX
  5
65
330
64
100
AcDbEntity
  8
_U+56FE_U+5C42 1
 62
   250
420
  2234388
370
    13
100
AcDbVertex
100
AcDb2dVertex
 10
620.1568675027942
 20
306.2273404280903
 30
0.0
  0
VERTEX
  5
66
330
64
100
AcDbEntity
  8
_U+56FE_U+5C42 1
 62
   250
420
  2234388
370
    13
100
AcDbVertex
100
AcDb2dVertex
 10
655.4930090561512
 20
329.221579741403
 30
0.0
  0
SEQEND
  5
67
330
64
100
AcDbEntity
  8
_U+56FE_U+5C42 1
 62
   250
420
  2234388
370
    13
  0
SPLINE
  5
68
330
49
100
AcDbEntity
  8
_U+56FE_U+5C42 1
 62
   250
420
  2234388
370
    13
100
AcDbSpline
210
0.0
220
0.0
230
1.0
 70
    27
 71
     3
 72
    11
 73
     7
 74
     0
 42
0.0000000001
 43
0.0000000001
 12
1.0
 22
0.0
 32
0.0
 13
1.0
 23
0.0
 33
0.0
 40
0.0
 40
0.0
 40
0.0
 40
0.0
 40
1.0
 40
1.0
 40
1.0
 40
2.0
 40
2.0
 40
2.0
 40
2.0
 10
622.4233843768629
 20
306.2273404280903
 30
0.0
 10
622.4233843768629
 20
306.2273404280903
 30
0.0
 10
657.7595259302128
 20
329.221579741403
 30
0.0
 10
657.7595259302128
 20
329.221579741403
 30
0.0
 10
657.7595259302128
 20
329.221579741403
 30
0.0
 10
622.4233843768629
 20
306.2273404280903
 30
0.0
 10
622.4233843768629
 20
306.2273404280903
 30
0.0
  0
SPLINE
  5
69
330
49
100
AcDbEntity
  8
_U+56FE_U+5C42 1
 62
   250
420
  2234388
370
    13
100
AcDbSpline
210
0.0
220
0.0
230
1.0
 70
    27
 71
     3
 72
    11
 73
     7
 74
     0
 42
0.0000000001
 43
0.0000000001
 12
1.0
 22
0.0
 32
0.0
 13
1.0
 23
0.0
 33
0.0
 40
0.0
 40
0.0
 40
0.0
 40
0.0
 40
1.0
 40
1.0
 40
1.0
 40
2.0
 40
2.0
 40
2.0
 40
2.0
 10
624.6816055521854
 20
306.2273404280903
 30
0.0
 10
624.6816055521854
 20
306.2273404280903
 30
0.0
 10
660.0177471055354
 20
329.221579741403
 30
0.0
 10
660.0177471055354
 20
329.221579741403
 30
0.0
 10
660.0177471055354
 20
329.221579741403
 30
0.0
 10
624.6816055521854
 20
306.2273404280903
 30
0.0
 10
624.6816055521854
 20
306.2273404280903
 30
0.0
  0
SPLINE
  5
6A
330
49
100
AcDbEntity
  8
_U+56FE_U+5C42 1
 62
   250
420
  2234388
370
    13
100
AcDbSpline
210
0.0
220
0.0
230
1.0
 70
    27
 71
     3
 72
    11
 73
     7
 74
     0
 42
0.0000000001
 43
0.0000000001
 12
1.0
 22
0.0
 32
0.0
 13
1.0
 23
0.0
 33
0.0
 40
0.0
 40
0.0
 40
0.0
 40
0.0
 40
1.0
 40
1.0
 40
1.0
 40
2.0
 40
2.0
 40
2.0
 40
2.0
 10
627.0052024897736
 20
306.2273404280903
 30
0.0
 10
627.0052024897736
 20
306.2273404280903
 30
0.0
 10
662.3413440431236
 20
329.221579741403
 30
0.0
 10
662.3413440431236
 20
329.221579741403
 30
0.0
 10
662.3413440431236
 20
329.221579741403
 30
0.0
 10
627.0052024897736
 20
306.2273404280903
 30
0.0
 10
627.0052024897736
 20
306.2273404280903
 30
0.0
  0
SPLINE
  5
6B
330
49
100
AcDbEntity
  8
_U+56FE_U+5C42 1
 62
   250
420
  2234388
370
    13
100
AcDbSpline
210
0.0
220
0.0
230
1.0
 70
    27
 71
     3
 72
    11
 73
     7
 74
     0
 42
0.0000000001
 43
0.0000000001
 12
1.0
 22
0.0
 32
0.0
 13
1.0
 23
0.0
 33
0.0
 40
0.0
 40
0.0
 40
0.0
 40
0.0
 40
1.0
 40
1.0
 40
1.0
 40
2.0
 40
2.0
 40
2.0
 40
2.0
 10
629.2696454391562
 20
306.2273404280903
 30
0.0
 10
629.2696454391562
 20
306.2273404280903
 30
0.0
 10
664.6060226657676
 20
329.221579741403
 30
0.0
 10
664.6060226657676
 20
329.221579741403
 30
0.0
 10
664.6060226657676
 20
329.221579741403
 30
0.0
 10
629.2696454391562
 20
306.2273404280903
 30
0.0
 10
629.2696454391562
 20
306.2273404280903
 30
0.0
  0
SPLINE
  5
6C
330
49
100
AcDbEntity
  8
_U+56FE_U+5C42 1
 62
   250
420
  2234388
370
    13
100
AcDbSpline
210
0.0
220
0.0
230
1.0
 70
    27
 71
     3
 72
    11
 73
     7
 74
     0
 42
0.0000000001
 43
0.0000000001
 12
1.0
 22
0.0
 32
0.0
 13
1.0
 23
0.0
 33
0.0
 40
0.0
 40
0.0
 40
0.0
 40
0.0
 40
1.0
 40
1.0
 40
1.0
 40
2.0
 40
2.0
 40
2.0
 40
2.0
 10
631.2974960030298
 20
306.2273404280903
 30
0.0
 10
631.2974960030298
 20
306.2273404280903
 30
0.0
 10
666.633637556383
 20
329.221579741403
 30
0.0
 10
666.633637556383
 20
329.221579741403
 30
0.0
 10
666.633637556383
 20
329.221579741403
 30
0.0
 10
631.2974960030298
 20
306.2273404280903
 30
0.0
 10
631.2974960030298
 20
306.2273404280903
 30
0.0
  0
SPLINE
  5
6D
330
49
100
AcDbEntity
  8
_U+56FE_U+5C42 1
 62
   250
420
  2234388
370
    13
100
AcDbSpline
210
0.0
220
0.0
230
1.0
 70
    27
 71
     3
 72
    11
 73
     7
 74
     0
 42
0.0000000001
 43
0.0000000001
 12
1.0
 22
0.0
 32
0.0
 13
1.0
 23
0.0
 33
0.0
 40
0.0
 40
0.0
 40
0.0
 40
0.0
 40
1.0
 40
1.0
 40
1.0
 40
2.0
 40
2.0
 40
2.0
 40
2.0
 10
633.3088965733698
 20
306.2273404280903
 30
0.0
 10
633.3088965733698
 20
306.2273404280903
 30
0.0
 10
668.6451559633556
 20
329.221579741403
 30
0.0
 10
668.6451559633556
 20
329.221579741403
 30
0.0
 10
668.6451559633556
 20
329.221579741403
 30
0.0
 10
633.3088965733698
 20
306.2273404280903
 30
0.0
 10
633.3088965733698
 20
306.2273404280903
 30
0.0
  0
SPLINE
  5
6E
330
49
100
AcDbEntity
  8
_U+56FE_U+5C42 1
 62
   250
420
  2234388
370
    13
100
AcDbSpline
210
0.0
220
0.0
230
1.0
 70
    27
 71
     3
 72
    11
 73
     7
 74
     0
 42
0.0000000001
 43
0.0000000001
 12
1.0
 22
0.0
 32
0.0
 13
1.0
 23
0.0
 33
0.0
 40
0.0
 40
0.0
 40
0.0
 40
0.0
 40
1.0
 40
1.0
 40
1.0
 40
2.0
 40
2.0
 40
2.0
 40
2.0
 10
635.2920870545169
 20
306.2273404280903
 30
0.0
 10
635.2920870545169
 20
306.2273404280903
 30
0.0
 10
670.6279929346092
 20
329.221579741403
 30
0.0
 10
670.6279929346092
 20
329.221579741403
 30
0.0
 10
670.6279929346092
 20
329.221579741403
 30
0.0
 10
635.2920870545169
 20
306.2273404280903
 30
0.0
 10
635.2920870545169
 20
306.2273404280903
 30
0.0
  0
SPLINE
  5
6F
330
49
100
AcDbEntity
  8
_U+56FE_U+5C42 1
 62
   250
420
  2234388
370
    13
100
AcDbSpline
210
0.0
220
0.0
230
1.0
 70
    27
 71
     3
 72
    11
 73
     7
 74
     0
 42
0.0000000001
 43
0.0000000001
 12
1.0
 22
0.0
 32
0.0
 13
1.0
 23
0.0
 33
0.0
 40
0.0
 40
0.0
 40
0.0
 40
0.0
 40
1.0
 40
1.0
 40
1.0
 40
2.0
 40
2.0
 40
2.0
 40
2.0
 10
637.2594167252796
 20
306.2273404280903
 30
0.0
 10
637.2594167252796
 20
306.2273404280903
 30
0.0
 10
672.5958882211972
 20
329.221579741403
 30
0.0
 10
672.5958882211972
 20
329.221579741403
 30
0.0
 10
672.5958882211972
 20
329.221579741403
 30
0.0
 10
637.2594167252796
 20
306.2273404280903
 30
0.0
 10
637.2594167252796
 20
306.2273404280903
 30
0.0
  0
SPLINE
  5
70
330
49
100
AcDbEntity
  8
_U+56FE_U+5C42 1
 62
   250
420
  2234388
370
    13
100
AcDbSpline
210
0.0
220
0.0
230
1.0
 70
    27
 71
     3
 72
    11
 73
     7
 74
     0
 42
0.0000000001
 43
0.0000000001
 12
1.0
 22
0.0
 32
0.0
 13
1.0
 23
0.0
 33
0.0
 40
0.0
 40
0.0
 40
0.0
 40
0.0
 40
1.0
 40
1.0
 40
1.0
 40
2.0
 40
2.0
 40
2.0
 40
2.0
 10
639.3353682014761
 20
306.2273404280903
 30
0.0
 10
639.3353682014761
 20
306.2273404280903
 30
0.0
 10
674.6713919181973
 20
329.221579741403
 30
0.0
 10
674.6713919181973
 20
329.221579741403
 30
0.0
 10
674.6713919181973
 20
329.221579741403
 30
0.0
 10
639.3353682014761
 20
306.2273404280903
 30
0.0
 10
639.3353682014761
 20
306.2273404280903
 30
0.0
  0
SPLINE
  5
71
330
49
100
AcDbEntity
  8
_U+56FE_U+5C42 1
 62
   250
420
  2234388
370
    13
100
AcDbSpline
210
0.0
220
0.0
230
1.0
 70
    27
 71
     3
 72
    11
 73
     7
 74
     0
 42
0.0000000001
 43
0.0000000001
 12
1.0
 22
0.0
 32
0.0
 13
1.0
 23
0.0
 33
0.0
 40
0.0
 40
0.0
 40
0.0
 40
0.0
 40
1.0
 40
1.0
 40
1.0
 40
2.0
 40
2.0
 40
2.0
 40
2.0
 10
641.2750533988647
 20
306.2273404280903
 30
0.0
 10
641.2750533988647
 20
306.2273404280903
 30
0.0
 10
676.6115484621081
 20
329.221579741403
 30
0.0
 10
676.6115484621081
 20
329.221579741403
 30
0.0
 10
676.6115484621081
 20
329.221579741403
 30
0.0
 10
641.2750533988647
 20
306.2273404280903
 30
0.0
 10
641.2750533988647
 20
306.2273404280903
 30
0.0
  0
SPLINE
  5
72
330
49
100
AcDbEntity
  8
_U+56FE_U+5C42 1
 62
   250
420
  2234388
370
    13
100
AcDbSpline
210
0.0
220
0.0
230
1.0
 70
    27
 71
     3
 72
    11
 73
     7
 74
     0
 42
0.0000000001
 43
0.0000000001
 12
1.0
 22
0.0
 32
0.0
 13
1.0
 23
0.0
 33
0.0
 40
0.0
 40
0.0
 40
0.0
 40
0.0
 40
1.0
 40
1.0
 40
1.0
 40
2.0
 40
2.0
 40
2.0
 40
2.0
 10
643.2080926103264
 20
306.2273404280903
 30
0.0
 10
643.2080926103264
 20
306.2273404280903
 30
0.0
 10
678.5443520003083
 20
329.221579741403
 30
0.0
 10
678.5443520003083
 20
329.221579741403
 30
0.0
 10
678.5443520003083
 20
329.221579741403
 30
0.0
 10
643.2080926103264
 20
306.2273404280903
 30
0.0
 10
643.2080926103264
 20
306.2273404280903
 30
0.0
  0
SPLINE
  5
73
330
49
100
AcDbEntity
  8
_U+56FE_U+5C42 1
 62
   250
420
  2234388
370
    13
100
AcDbSpline
210
0.0
220
0.0
230
1.0
 70
    27
 71
     3
 72
    11
 73
     7
 74
     0
 42
0.0000000001
 43
0.0000000001
 12
1.0
 22
0.0
 32
0.0
 13
1.0
 23
0.0
 33
0.0
 40
0.0
 40
0.0
 40
0.0
 40
0.0
 40
1.0
 40
1.0
 40
1.0
 40
2.0
 40
2.0
 40
2.0
 40
2.0
 10
645.0350081529028
 20
306.2273404280903
 30
0.0
 10
645.0350081529028
 20
306.2273404280903
 30
0.0
 10
680.3712675428849
 20
329.221579741403
 30
0.0
 10
680.3712675428849
 20
329.221579741403
 30
0.0
 10
680.3712675428849
 20
329.221579741403
 30
0.0
 10
645.0350081529028
 20
306.2273404280903
 30
0.0
 10
645.0350081529028
 20
306.2273404280903
 30
0.0
  0
SPLINE
  5
74
330
49
100
AcDbEntity
  8
_U+56FE_U+5C42 1
 62
   250
420
  2234388
370
    13
100
AcDbSpline
210
0.0
220
0.0
230
1.0
 70
    27
 71
     3
 72
    11
 73
     7
 74
     0
 42
0.0000000001
 43
0.0000000001
 12
1.0
 22
0.0
 32
0.0
 13
1.0
 23
0.0
 33
0.0
 40
0.0
 40
0.0
 40
0.0
 40
0.0
 40
1.0
 40
1.0
 40
1.0
 40
2.0
 40
2.0
 40
2.0
 40
2.0
 10
646.9378811871115
 20
306.2273404280903
 30
0.0
 10
646.9378811871115
 20
306.2273404280903
 30
0.0
 10
682.2740463077879
 20
329.221579741403
 30
0.0
 10
682.2740463077879
 20
329.221579741403
 30
0.0
 10
682.2740463077879
 20
329.221579741403
 30
0.0
 10
646.9378811871115
 20
306.2273404280903
 30
0.0
 10
646.9378811871115
 20
306.2273404280903
 30
0.0
  0
SPLINE
  5
75
330
49
100
AcDbEntity
  8
_U+56FE_U+5C42 1
 62
   250
420
  2234388
370
    13
100
AcDbSpline
210
0.0
220
0.0
230
1.0
 70
    27
 71
     3
 72
    11
 73
     7
 74
     0
 42
0.0000000001
 43
0.0000000001
 12
1.0
 22
0.0
 32
0.0
 13
1.0
 23
0.0
 33
0.0
 40
0.0
 40
0.0
 40
0.0
 40
0.0
 40
1.0
 40
1.0
 40
1.0
 40
2.0
 40
2.0
 40
2.0
 40
2.0
 10
648.9655196450532
 20
306.2273404280903
 30
0.0
 10
648.9655196450532
 20
306.2273404280903
 30
0.0
 10
684.3017790350352
 20
329.221579741403
 30
0.0
 10
684.3017790350352
 20
329.221579741403
 30
0.0
 10
684.3017790350352
 20
329.221579741403
 30
0.0
 10
648.9655196450532
 20
306.2273404280903
 30
0.0
 10
648.9655196450532
 20
306.2273404280903
 30
0.0
  0
SPLINE
  5
76
330
49
100
AcDbEntity
  8
_U+56FE_U+5C42 1
 62
   250
420
  2234388
370
    13
100
AcDbSpline
210
0.0
220
0.0
230
1.0
 70
    27
 71
     3
 72
    11
 73
     7
 74
     0
 42
0.0000000001
 43
0.0000000001
 12
1.0
 22
0.0
 32
0.0
 13
1.0
 23
0.0
 33
0.0
 40
0.0
 40
0.0
 40
0.0
 40
0.0
 40
1.0
 40
1.0
 40
1.0
 40
2.0
 40
2.0
 40
2.0
 40
2.0
 10
650.9770144847027
 20
306.2273404280903
 30
0.0
 10
650.9770144847027
 20
306.2273404280903
 30
0.0
 10
686.3132738746815
 20
329.221579741403
 30
0.0
 10
686.3132738746815
 20
329.221579741403
 30
0.0
 10
686.3132738746815
 20
329.221579741403
 30
0.0
 10
650.9770144847027
 20
306.2273404280903
 30
0.0
 10
650.9770144847027
 20
306.2273404280903
 30
0.0
  0
SPLINE
  5
77
330
49
100
AcDbEntity
  8
_U+56FE_U+5C42 1
 62
   250
420
  2234388
370
    13
100
AcDbSpline
210
0.0
220
0.0
230
1.0
 70
    27
 71
     3
 72
    11
 73
     7
 74
     0
 42
0.0000000001
 43
0.0000000001
 12
1.0
 22
0.0
 32
0.0
 13
1.0
 23
0.0
 33
0.0
 40
0.0
 40
0.0
 40
0.0
 40
0.0
 40
1.0
 40
1.0
 40
1.0
 40
2.0
 40
2.0
 40
2.0
 40
2.0
 10
652.9599928599083
 20
306.2273404280903
 30
0.0
 10
652.9599928599083
 20
306.2273404280903
 30
0.0
 10
688.2962522498941
 20
329.221579741403
 30
0.0
 10
688.2962522498941
 20
329.221579741403
 30
0.0
 10
688.2962522498941
 20
329.221579741403
 30
0.0
 10
652.9599928599083
 20
306.2273404280903
 30
0.0
 10
652.9599928599083
 20
306.2273404280903
 30
0.0
  0
SPLINE
  5
78
330
49
100
AcDbEntity
  8
_U+56FE_U+5C42 1
 62
   250
420
  2234388
370
    13
100
AcDbSpline
210
0.0
220
0.0
230
1.0
 70
    27
 71
     3
 72
    11
 73
     7
 74
     0
 42
0.0000000001
 43
0.0000000001
 12
1.0
 22
0.0
 32
0.0
 13
1.0
 23
0.0
 33
0.0
 40
0.0
 40
0.0
 40
0.0
 40
0.0
 40
1.0
 40
1.0
 40
1.0
 40
2.0
 40
2.0
 40
2.0
 40
2.0
 10
654.9277703098675
 20
306.2273404280903
 30
0.0
 10
654.9277703098675
 20
306.2273404280903
 30
0.0
 10
690.2640296998463
 20
329.221579741403
 30
0.0
 10
690.2640296998463
 20
329.221579741403
 30
0.0
 10
690.2640296998463
 20
329.221579741403
 30
0.0
 10
654.9277703098675
 20
306.2273404280903
 30
0.0
 10
654.9277703098675
 20
306.2273404280903
 30
0.0
  0
SPLINE
  5
79
330
49
100
AcDbEntity
  8
_U+56FE_U+5C42 1
 62
   250
420
  2234388
370
    13
100
AcDbSpline
210
0.0
220
0.0
230
1.0
 70
    27
 71
     3
 72
    11
 73
     7
 74
     0
 42
0.0000000001
 43
0.0000000001
 12
1.0
 22
0.0
 32
0.0
 13
1.0
 23
0.0
 33
0.0
 40
0.0
 40
0.0
 40
0.0
 40
0.0
 40
1.0
 40
1.0
 40
1.0
 40
2.0
 40
2.0
 40
2.0
 40
2.0
 10
657.0032504395443
 20
306.2273404280903
 30
0.0
 10
657.0032504395443
 20
306.2273404280903
 30
0.0
 10
692.3393919928975
 20
329.221579741403
 30
0.0
 10
692.3393919928975
 20
329.221579741403
 30
0.0
 10
692.3393919928975
 20
329.221579741403
 30
0.0
 10
657.0032504395443
 20
306.2273404280903
 30
0.0
 10
657.0032504395443
 20
306.2273404280903
 30
0.0
  0
SPLINE
  5
7A
330
49
100
AcDbEntity
  8
_U+56FE_U+5C42 1
 62
   250
420
  2234388
370
    13
100
AcDbSpline
210
0.0
220
0.0
230
1.0
 70
    27
 71
     3
 72
    11
 73
     7
 74
     0
 42
0.0000000001
 43
0.0000000001
 12
1.0
 22
0.0
 32
0.0
 13
1.0
 23
0.0
 33
0.0
 40
0.0
 40
0.0
 40
0.0
 40
0.0
 40
1.0
 40
1.0
 40
1.0
 40
2.0
 40
2.0
 40
2.0
 40
2.0
 10
658.9434069834521
 20
306.2273404280903
 30
0.0
 10
658.9434069834521
 20
306.2273404280903
 30
0.0
 10
694.2796663734347
 20
329.221579741403
 30
0.0
 10
694.2796663734347
 20
329.221579741403
 30
0.0
 10
694.2796663734347
 20
329.221579741403
 30
0.0
 10
658.9434069834521
 20
306.2273404280903
 30
0.0
 10
658.9434069834521
 20
306.2273404280903
 30
0.0
  0
POLYLINE
  5
7B
330
49
100
AcDbEntity
  8
_U+56FE_U+5C42 1
 62
   250
420
  2234388
370
    13
100
AcDb2dPolyline
 66
     1
 10
0.0
 20
0.0
 30
0.0
  0
VERTEX
  5
7C
330
7B
100
AcDbEntity
  8
_U+56FE_U+5C42 1
 62
   250
420
  2234388
370
    13
100
AcDbVertex
100
AcDb2dVertex
 10
661.184164770223
 20
306.2273404280903
 30
0.0
  0
VERTEX
  5
7D
330
7B
100
AcDbEntity
  8
_U+56FE_U+5C42 1
 62
   250
420
  2234388
370
    13
100
AcDbVertex
100
AcDb2dVertex
 10
696.5204241602056
 20
329.221579741403
 30
0.0
  0
SEQEND
  5
7E
330
7B
100
AcDbEntity
  8
_U+56FE_U+5C42 1
 62
   250
420
  2234388
370
    13
  0
SPLINE
  5
7F
330
49
100
AcDbEntity
  8
_U+56FE_U+5C42 1
 62
   250
420
  2234388
370
    13
100
AcDbSpline
210
0.0
220
0.0
230
1.0
 70
    27
 71
     3
 72
    11
 73
     7
 74
     0
 42
0.0000000001
 43
0.0000000001
 12
1.0
 22
0.0
 32
0.0
 13
1.0
 23
0.0
 33
0.0
 40
0.0
 40
0.0
 40
0.0
 40
0.0
 40
1.0
 40
1.0
 40
1.0
 40
2.0
 40
2.0
 40
2.0
 40
2.0
 10
663.4506580769615
 20
306.2273404280903
 30
0.0
 10
663.4506580769615
 20
306.2273404280903
 30
0.0
 10
698.7869174669441
 20
329.221579741403
 30
0.0
 10
698.7869174669441
 20
329.221579741403
 30
0.0
 10
698.7869174669441
 20
329.221579741403
 30
0.0
 10
663.4506580769615
 20
306.2273404280903
 30
0.0
 10
663.4506580769615
 20
306.2273404280903
 30
0.0
  0
SPLINE
  5
80
330
49
100
AcDbEntity
  8
_U+56FE_U+5C42 1
 62
   250
420
  2234388
370
    13
100
AcDbSpline
210
0.0
220
0.0
230
1.0
 70
    27
 71
     3
 72
    11
 73
     7
 74
     0
 42
0.0000000001
 43
0.0000000001
 12
1.0
 22
0.0
 32
0.0
 13
1.0
 23
0.0
 33
0.0
 40
0.0
 40
0.0
 40
0.0
 40
0.0
 40
1.0
 40
1.0
 40
1.0
 40
2.0
 40
2.0
 40
2.0
 40
2.0
 10
665.7089028196142
 20
306.2273404280903
 30
0.0
 10
665.7089028196142
 20
306.2273404280903
 30
0.0
 10
701.0451622095891
 20
329.221579741403
 30
0.0
 10
701.0451622095891
 20
329.221579741403
 30
0.0
 10
701.0451622095891
 20
329.221579741403
 30
0.0
 10
665.7089028196142
 20
306.2273404280903
 30
0.0
 10
665.7089028196142
 20
306.2273404280903
 30
0.0
  0
SPLINE
  5
81
330
49
100
AcDbEntity
  8
_U+56FE_U+5C42 1
 62
   250
420
  2234388
370
    13
100
AcDbSpline
210
0.0
220
0.0
230
1.0
 70
    27
 71
     3
 72
    11
 73
     7
 74
     0
 42
0.0000000001
 43
0.0000000001
 12
1.0
 22
0.0
 32
0.0
 13
1.0
 23
0.0
 33
0.0
 40
0.0
 40
0.0
 40
0.0
 40
0.0
 40
1.0
 40
1.0
 40
1.0
 40
2.0
 40
2.0
 40
2.0
 40
2.0
 10
668.0324997571987
 20
306.2273404280903
 30
0.0
 10
668.0324997571987
 20
306.2273404280903
 30
0.0
 10
703.3687591471775
 20
329.221579741403
 30
0.0
 10
703.3687591471775
 20
329.221579741403
 30
0.0
 10
703.3687591471775
 20
329.221579741403
 30
0.0
 10
668.0324997571987
 20
306.2273404280903
 30
0.0
 10
668.0324997571987
 20
306.2273404280903
 30
0.0
  0
SPLINE
  5
82
330
49
100
AcDbEntity
  8
_U+56FE_U+5C42 1
 62
   250
420
  2234388
370
    13
100
AcDbSpline
210
0.0
220
0.0
230
1.0
 70
    27
 71
     3
 72
    11
 73
     7
 74
     0
 42
0.0000000001
 43
0.0000000001
 12
1.0
 22
0.0
 32
0.0
 13
1.0
 23
0.0
 33
0.0
 40
0.0
 40
0.0
 40
0.0
 40
0.0
 40
1.0
 40
1.0
 40
1.0
 40
2.0
 40
2.0
 40
2.0
 40
2.0
 10
670.297154812513
 20
306.2273404280903
 30
0.0
 10
670.297154812513
 20
306.2273404280903
 30
0.0
 10
705.6334142024956
 20
329.221579741403
 30
0.0
 10
705.6334142024956
 20
329.221579741403
 30
0.0
 10
705.6334142024956
 20
329.221579741403
 30
0.0
 10
670.297154812513
 20
306.2273404280903
 30
0.0
 10
670.297154812513
 20
306.2273404280903
 30
0.0
  0
SPLINE
  5
83
330
49
100
AcDbEntity
  8
_U+56FE_U+5C42 1
 62
   250
420
  2234388
370
    13
100
AcDbSpline
210
0.0
220
0.0
230
1.0
 70
    27
 71
     3
 72
    11
 73
     7
 74
     0
 42
0.0000000001
 43
0.0000000001
 12
1.0
 22
0.0
 32
0.0
 13
1.0
 23
0.0
 33
0.0
 40
0.0
 40
0.0
 40
0.0
 40
0.0
 40
1.0
 40
1.0
 40
1.0
 40
2.0
 40
2.0
 40
2.0
 40
2.0
 10
672.3247697031322
 20
306.2273404280903
 30
0.0
 10
672.3247697031322
 20
306.2273404280903
 30
0.0
 10
707.661029093111
 20
329.221579741403
 30
0.0
 10
707.661029093111
 20
329.221579741403
 30
0.0
 10
707.661029093111
 20
329.221579741403
 30
0.0
 10
672.3247697031322
 20
306.2273404280903
 30
0.0
 10
672.3247697031322
 20
306.2273404280903
 30
0.0
  0
SPLINE
  5
84
330
49
100
AcDbEntity
  8
_U+56FE_U+5C42 1
 62
   250
420
  2234388
370
    13
100
AcDbSpline
210
0.0
220
0.0
230
1.0
 70
    27
 71
     3
 72
    11
 73
     7
 74
     0
 42
0.0000000001
 43
0.0000000001
 12
1.0
 22
0.0
 32
0.0
 13
1.0
 23
0.0
 33
0.0
 40
0.0
 40
0.0
 40
0.0
 40
0.0
 40
1.0
 40
1.0
 40
1.0
 40
2.0
 40
2.0
 40
2.0
 40
2.0
 10
674.336288110101
 20
306.2273404280903
 30
0.0
 10
674.336288110101
 20
306.2273404280903
 30
0.0
 10
709.6725475000869
 20
329.221579741403
 30
0.0
 10
709.6725475000869
 20
329.221579741403
 30
0.0
 10
709.6725475000869
 20
329.221579741403
 30
0.0
 10
674.336288110101
 20
306.2273404280903
 30
0.0
 10
674.336288110101
 20
306.2273404280903
 30
0.0
  0
SPLINE
  5
85
330
49
100
AcDbEntity
  8
_U+56FE_U+5C42 1
 62
   250
420
  2234388
370
    13
100
AcDbSpline
210
0.0
220
0.0
230
1.0
 70
    27
 71
     3
 72
    11
 73
     7
 74
     0
 42
0.0000000001
 43
0.0000000001
 12
1.0
 22
0.0
 32
0.0
 13
1.0
 23
0.0
 33
0.0
 40
0.0
 40
0.0
 40
0.0
 40
0.0
 40
1.0
 40
1.0
 40
1.0
 40
2.0
 40
2.0
 40
2.0
 40
2.0
 10
676.3192664853137
 20
306.2273404280903
 30
0.0
 10
676.3192664853137
 20
306.2273404280903
 30
0.0
 10
711.6555258752957
 20
329.221579741403
 30
0.0
 10
711.6555258752957
 20
329.221579741403
 30
0.0
 10
711.6555258752957
 20
329.221579741403
 30
0.0
 10
676.3192664853137
 20
306.2273404280903
 30
0.0
 10
676.3192664853137
 20
306.2273404280903
 30
0.0
  0
SPLINE
  5
86
330
49
100
AcDbEntity
  8
_U+56FE_U+5C42 1
 62
   250
420
  2234388
370
    13
100
AcDbSpline
210
0.0
220
0.0
230
1.0
 70
    27
 71
     3
 72
    11
 73
     7
 74
     0
 42
0.0000000001
 43
0.0000000001
 12
1.0
 22
0.0
 32
0.0
 13
1.0
 23
0.0
 33
0.0
 40
0.0
 40
0.0
 40
0.0
 40
0.0
 40
1.0
 40
1.0
 40
1.0
 40
2.0
 40
2.0
 40
2.0
 40
2.0
 10
678.287043935269
 20
306.2273404280903
 30
0.0
 10
678.287043935269
 20
306.2273404280903
 30
0.0
 10
713.6233033252511
 20
329.221579741403
 30
0.0
 10
713.6233033252511
 20
329.221579741403
 30
0.0
 10
713.6233033252511
 20
329.221579741403
 30
0.0
 10
678.287043935269
 20
306.2273404280903
 30
0.0
 10
678.287043935269
 20
306.2273404280903
 30
0.0
  0
SPLINE
  5
87
330
49
100
AcDbEntity
  8
_U+56FE_U+5C42 1
 62
   250
420
  2234388
370
    13
100
AcDbSpline
210
0.0
220
0.0
230
1.0
 70
    27
 71
     3
 72
    11
 73
     7
 74
     0
 42
0.0000000001
 43
0.0000000001
 12
1.0
 22
0.0
 32
0.0
 13
1.0
 23
0.0
 33
0.0
 40
0.0
 40
0.0
 40
0.0
 40
0.0
 40
1.0
 40
1.0
 40
1.0
 40
2.0
 40
2.0
 40
2.0
 40
2.0
 10
680.3625240649459
 20
306.2273404280903
 30
0.0
 10
680.3625240649459
 20
306.2273404280903
 30
0.0
 10
715.6987834549285
 20
329.221579741403
 30
0.0
 10
715.6987834549285
 20
329.221579741403
 30
0.0
 10
715.6987834549285
 20
329.221579741403
 30
0.0
 10
680.3625240649459
 20
306.2273404280903
 30
0.0
 10
680.3625240649459
 20
306.2273404280903
 30
0.0
  0
SPLINE
  5
88
330
49
100
AcDbEntity
  8
_U+56FE_U+5C42 1
 62
   250
420
  2234388
370
    13
100
AcDbSpline
210
0.0
220
0.0
230
1.0
 70
    27
 71
     3
 72
    11
 73
     7
 74
     0
 42
0.0000000001
 43
0.0000000001
 12
1.0
 22
0.0
 32
0.0
 13
1.0
 23
0.0
 33
0.0
 40
0.0
 40
0.0
 40
0.0
 40
0.0
 40
1.0
 40
1.0
 40
1.0
 40
2.0
 40
2.0
 40
2.0
 40
2.0
 10
682.3022328296609
 20
306.2273404280903
 30
0.0
 10
682.3022328296609
 20
306.2273404280903
 30
0.0
 10
717.6389399988361
 20
329.221579741403
 30
0.0
 10
717.6389399988361
 20
329.221579741403
 30
0.0
 10
717.6389399988361
 20
329.221579741403
 30
0.0
 10
682.3022328296609
 20
306.2273404280903
 30
0.0
 10
682.3022328296609
 20
306.2273404280903
 30
0.0
  0
SPLINE
  5
89
330
49
100
AcDbEntity
  8
_U+56FE_U+5C42 1
 62
   250
420
  2234388
370
    13
100
AcDbSpline
210
0.0
220
0.0
230
1.0
 70
    27
 71
     3
 72
    11
 73
     7
 74
     0
 42
0.0000000001
 43
0.0000000001
 12
1.0
 22
0.0
 32
0.0
 13
1.0
 23
0.0
 33
0.0
 40
0.0
 40
0.0
 40
0.0
 40
0.0
 40
1.0
 40
1.0
 40
1.0
 40
2.0
 40
2.0
 40
2.0
 40
2.0
 10
684.2354841470576
 20
306.2273404280903
 30
0.0
 10
684.2354841470576
 20
306.2273404280903
 30
0.0
 10
719.5717435370364
 20
329.221579741403
 30
0.0
 10
719.5717435370364
 20
329.221579741403
 30
0.0
 10
719.5717435370364
 20
329.221579741403
 30
0.0
 10
684.2354841470576
 20
306.2273404280903
 30
0.0
 10
684.2354841470576
 20
306.2273404280903
 30
0.0
  0
SPLINE
  5
8A
330
49
100
AcDbEntity
  8
_U+56FE_U+5C42 1
 62
   250
420
  2234388
370
    13
100
AcDbSpline
210
0.0
220
0.0
230
1.0
 70
    27
 71
     3
 72
    11
 73
     7
 74
     0
 42
0.0000000001
 43
0.0000000001
 12
1.0
 22
0.0
 32
0.0
 13
1.0
 23
0.0
 33
0.0
 40
0.0
 40
0.0
 40
0.0
 40
0.0
 40
1.0
 40
1.0
 40
1.0
 40
2.0
 40
2.0
 40
2.0
 40
2.0
 10
686.0624232569637
 20
306.2273404280903
 30
0.0
 10
686.0624232569637
 20
306.2273404280903
 30
0.0
 10
721.3986826469425
 20
329.221579741403
 30
0.0
 10
721.3986826469425
 20
329.221579741403
 30
0.0
 10
721.3986826469425
 20
329.221579741403
 30
0.0
 10
686.0624232569637
 20
306.2273404280903
 30
0.0
 10
686.0624232569637
 20
306.2273404280903
 30
0.0
  0
ENDBLK
  5
4C
330
49
100
AcDbEntity
  8
0
100
AcDbBlockEnd
  0
BLOCK
  5
8E
330
8C
100
AcDbEntity
  8
0
100
AcDbBlockBegin
  2
block 5
 70
     0
 10
0.0
 20
0.0
 30
0.0
  3
block 5
  1

  0
SPLINE
  5
90
330
8C
100
AcDbEntity
  8
_U+56FE_U+5C42 1
370
     0
100
AcDbSpline
210
0.0
220
0.0
230
1.0
 70
    11
 71
     3
 72
    47
 73
    43
 74
     0
 42
0.0000000001
 43
0.0000000001
 12
1.0
 22
0.0
 32
0.0
 13
1.0
 23
0.0
 33
0.0
 40
0.0
 40
0.0
 40
0.0
 40
0.0
 40
1.0
 40
1.0
 40
1.0
 40
2.0
 40
2.0
 40
2.0
 40
3.0
 40
3.0
 40
3.0
 40
4.0
 40
4.0
 40
4.0
 40
5.0
 40
5.0
 40
5.0
 40
6.0
 40
6.0
 40
6.0
 40
7.0
 40
7.0
 40
7.0
 40
8.0
 40
8.0
 40
8.0
 40
9.0
 40
9.0
 40
9.0
 40
10.0
 40
10.0
 40
10.0
 40
11.0
 40
11.0
 40
11.0
 40
12.0
 40
12.0
 40
12.0
 40
13.0
 40
13.0
 40
13.0
 40
14.0
 40
14.0
 40
14.0
 40
14.0
 10
710.7718860626381
 20
316.631817449485
 30
0.0
 10
710.6658077134063
 20
316.6912109506451
 30
0.0
 10
710.4622099037514
 20
316.7761514381122
 30
0.0
 10
710.1950688286628
 20
316.7761514381122
 30
0.0
 10
709.8088813909892
 20
316.7761514381122
 30
0.0
 10
709.6475593048709
 20
316.5512860865579
 30
0.0
 10
709.6475593048709
 20
316.343279152364
 30
0.0
 10
709.6475593048709
 20
316.0675791884636
 30
0.0
 10
709.8301489328895
 20
315.9318040886488
 30
0.0
 10
710.2414943164698
 20
315.7536235851685
 30
0.0
 10
710.7635865340909
 20
315.5244787892075
 30
0.0
 10
711.0138691918202
 20
315.2402199364932
 30
0.0
 10
711.0138691918202
 20
314.7946389976582
 30
0.0
 10
711.0138691918202
 20
314.2515385984032
 30
0.0
 10
710.6108233367839
 20
313.8442132989613
 30
0.0
 10
709.8809835452344
 20
313.8442132989613
 30
0.0
 10
709.5754571506219
 20
313.8442132989613
 30
0.0
 10
709.2530723386461
 20
313.9333035507015
 30
0.0
 10
709.0959000167983
 20
314.0393818999356
 30
0.0
 10
709.0959000167983
 20
314.0393818999356
 30
0.0
 10
709.206387490575
 20
314.4509866437841
 30
0.0
 10
709.206387490575
 20
314.4509866437841
 30
0.0
 10
709.3804182297815
 20
314.3449082945493
 30
0.0
 10
709.6434095405972
 20
314.2600974872162
 30
0.0
 10
709.9105506156826
 20
314.2600974872162
 30
0.0
 10
710.2967380533562
 20
314.2600974872162
 30
0.0
 10
710.5130445160962
 20
314.4594158524638
 30
0.0
 10
710.5130445160962
 20
314.7522335939918
 30
0.0
 10
710.5130445160962
 20
315.0280632380259
 30
0.0
 10
710.3475726657049
 20
315.1976848526928
 30
0.0
 10
709.9616445882954
 20
315.3590069388136
 30
0.0
 10
709.4779376902014
 20
315.5541755397876
 30
0.0
 10
709.1511437536847
 20
315.846863601182
 30
0.0
 10
709.1511437536847
 20
316.2881650956102
 30
0.0
 10
709.1511437536847
 20
316.8015687442859
 30
0.0
 10
709.5627484975329
 20
317.1876265018271
 30
0.0
 10
710.2077774817517
 20
317.1876265018271
 30
0.0
 10
710.5174536406378
 20
317.1876265018271
 30
0.0
 10
710.7508778810084
 20
317.111374583307
 30
0.0
 10
710.8906730649584
 20
317.0391427489263
 30
0.0
 10
710.8906730649584
 20
317.0391427489263
 30
0.0
 10
710.7718860626381
 20
316.631817449485
 30
0.0
 10
710.7718860626381
 20
316.631817449485
 30
0.0
  0
HATCH
  5
91
330
8C
100
AcDbEntity
  8
_U+56FE_U+5C42 1
 62
    18
420
   262144
100
AcDbHatch
 10
0.0
 20
0.0
 30
0.0
210
0.0
220
0.0
230
1.0
  2
SOLID
 70
     1
 71
     0
 91
        1
 92
        1
 93
        1
 72
     4
 94
        3
 73
     0
 74
     1
 95
       47
 96
       43
 40
0.0
 40
0.0
 40
0.0
 40
0.0
 40
1.0
 40
1.0
 40
1.0
 40
2.0
 40
2.0
 40
2.0
 40
3.0
 40
3.0
 40
3.0
 40
4.0
 40
4.0
 40
4.0
 40
5.0
 40
5.0
 40
5.0
 40
6.0
 40
6.0
 40
6.0
 40
7.0
 40
7.0
 40
7.0
 40
8.0
 40
8.0
 40
8.0
 40
9.0
 40
9.0
 40
9.0
 40
10.0
 40
10.0
 40
10.0
 40
11.0
 40
11.0
 40
11.0
 40
12.0
 40
12.0
 40
12.0
 40
13.0
 40
13.0
 40
13.0
 40
14.0
 40
14.0
 40
14.0
 40
14.0
 10
710.7718860626381
 20
316.631817449485
 10
710.6658077134063
 20
316.6912109506451
 10
710.4622099037514
 20
316.7761514381122
 10
710.1950688286628
 20
316.7761514381122
 10
709.8088813909892
 20
316.7761514381122
 10
709.6475593048709
 20
316.5512860865579
 10
709.6475593048709
 20
316.343279152364
 10
709.6475593048709
 20
316.0675791884636
 10
709.8301489328895
 20
315.9318040886488
 10
710.2414943164698
 20
315.7536235851685
 10
710.7635865340909
 20
315.5244787892075
 10
711.0138691918202
 20
315.2402199364932
 10
711.0138691918202
 20
314.7946389976582
 10
711.0138691918202
 20
314.2515385984032
 10
710.6108233367839
 20
313.8442132989613
 10
709.8809835452344
 20
313.8442132989613
 10
709.5754571506219
 20
313.8442132989613
 10
709.2530723386461
 20
313.9333035507015
 10
709.0959000167983
 20
314.0393818999356
 10
709.0959000167983
 20
314.0393818999356
 10
709.206387490575
 20
314.4509866437841
 10
709.206387490575
 20
314.4509866437841
 10
709.3804182297815
 20
314.3449082945493
 10
709.6434095405972
 20
314.2600974872162
 10
709.9105506156826
 20
314.2600974872162
 10
710.2967380533562
 20
314.2600974872162
 10
710.5130445160962
 20
314.4594158524638
 10
710.5130445160962
 20
314.7522335939918
 10
710.5130445160962
 20
315.0280632380259
 10
710.3475726657049
 20
315.1976848526928
 10
709.9616445882954
 20
315.3590069388136
 10
709.4779376902014
 20
315.5541755397876
 10
709.1511437536847
 20
315.846863601182
 10
709.1511437536847
 20
316.2881650956102
 10
709.1511437536847
 20
316.8015687442859
 10
709.5627484975329
 20
317.1876265018271
 10
710.2077774817517
 20
317.1876265018271
 10
710.5174536406378
 20
317.1876265018271
 10
710.7508778810084
 20
317.111374583307
 10
710.8906730649584
 20
317.0391427489263
 10
710.8906730649584
 20
317.0391427489263
 10
710.7718860626381
 20
316.631817449485
 10
710.7718860626381
 20
316.631817449485
 97
        0
 97
        0
 75
     2
 76
     1
 98
        0
  0
POLYLINE
  5
92
330
8C
100
AcDbEntity
  8
_U+56FE_U+5C42 1
370
     0
100
AcDb2dPolyline
 66
     1
 10
0.0
 20
0.0
 30
0.0
  0
VERTEX
  5
93
330
92
100
AcDbEntity
  8
_U+56FE_U+5C42 1
370
     0
100
AcDbVertex
100
AcDb2dVertex
 10
711.5395924531828
 20
317.13679188948
 30
0.0
  0
VERTEX
  5
94
330
92
100
AcDbEntity
  8
_U+56FE_U+5C42 1
370
     0
100
AcDbVertex
100
AcDb2dVertex
 10
712.0315988798242
 20
317.13679188948
 30
0.0
  0
VERTEX
  5
95
330
92
100
AcDbEntity
  8
_U+56FE_U+5C42 1
370
     0
100
AcDbVertex
100
AcDb2dVertex
 10
712.0315988798242
 20
313.8908981470347
 30
0.0
  0
VERTEX
  5
96
330
92
100
AcDbEntity
  8
_U+56FE_U+5C42 1
370
     0
100
AcDbVertex
100
AcDb2dVertex
 10
711.5395924531828
 20
313.8908981470347
 30
0.0
  0
VERTEX
  5
97
330
92
100
AcDbEntity
  8
_U+56FE_U+5C42 1
370
     0
100
AcDbVertex
100
AcDb2dVertex
 10
711.5395924531828
 20
317.13679188948
 30
0.0
  0
SEQEND
  5
98
330
92
100
AcDbEntity
  8
_U+56FE_U+5C42 1
370
     0
  0
HATCH
  5
99
330
8C
100
AcDbEntity
  8
_U+56FE_U+5C42 1
 62
    18
420
   262144
100
AcDbHatch
 10
0.0
 20
0.0
 30
0.0
210
0.0
220
0.0
230
1.0
  2
SOLID
 70
     1
 71
     0
 91
        1
 92
        1
 93
        4
 72
     1
 10
711.5395924531828
 20
317.13679188948
 11
712.0315988798242
 21
317.13679188948
 72
     1
 10
712.0315988798242
 20
317.13679188948
 11
712.0315988798242
 21
313.8908981470347
 72
     1
 10
712.0315988798242
 20
313.8908981470347
 11
711.5395924531828
 21
313.8908981470347
 72
     1
 10
711.5395924531828
 20
313.8908981470347
 11
711.5395924531828
 21
317.13679188948
 97
        0
 75
     2
 76
     1
 98
        0
  0
SPLINE
  5
9A
330
8C
100
AcDbEntity
  8
_U+56FE_U+5C42 1
370
     0
100
AcDbSpline
210
0.0
220
0.0
230
1.0
 70
    11
 71
     3
 72
    53
 73
    49
 74
     0
 42
0.0000000001
 43
0.0000000001
 12
1.0
 22
0.0
 32
0.0
 13
1.0
 23
0.0
 33
0.0
 40
0.0
 40
0.0
 40
0.0
 40
0.0
 40
1.0
 40
1.0
 40
1.0
 40
2.0
 40
2.0
 40
2.0
 40
3.0
 40
3.0
 40
3.0
 40
4.0
 40
4.0
 40
4.0
 40
5.0
 40
5.0
 40
5.0
 40
6.0
 40
6.0
 40
6.0
 40
7.0
 40
7.0
 40
7.0
 40
8.0
 40
8.0
 40
8.0
 40
9.0
 40
9.0
 40
9.0
 40
10.0
 40
10.0
 40
10.0
 40
11.0
 40
11.0
 40
11.0
 40
12.0
 40
12.0
 40
12.0
 40
13.0
 40
13.0
 40
13.0
 40
14.0
 40
14.0
 40
14.0
 40
15.0
 40
15.0
 40
15.0
 40
16.0
 40
16.0
 40
16.0
 40
16.0
 10
715.0313597288126
 20
313.8908981470347
 30
0.0
 10
715.0313597288126
 20
313.8908981470347
 30
0.0
 10
714.5349441776297
 20
313.8908981470347
 30
0.0
 10
714.5349441776297
 20
313.8908981470347
 30
0.0
 10
714.5349441776297
 20
313.8908981470347
 30
0.0
 10
713.6819082592215
 20
315.4098415511604
 30
0.0
 10
713.6819082592215
 20
315.4098415511604
 30
0.0
 10
713.4868693383818
 20
315.7620527938485
 30
0.0
 10
713.2915710572743
 20
316.1439607871167
 30
0.0
 10
713.1432169845096
 20
316.5087510027575
 30
0.0
 10
713.1432169845096
 20
316.5087510027575
 30
0.0
 10
713.1260992068791
 20
316.5046012384846
 30
0.0
 10
713.1260992068791
 20
316.5046012384846
 30
0.0
 10
713.151516513053
 20
316.0929964946363
 30
0.0
 10
713.1600754018683
 20
315.6729625421081
 30
0.0
 10
713.1600754018683
 20
315.1044448366796
 30
0.0
 10
713.1600754018683
 20
315.1044448366796
 30
0.0
 10
713.1600754018683
 20
313.8908981470347
 30
0.0
 10
713.1600754018683
 20
313.8908981470347
 30
0.0
 10
713.1600754018683
 20
313.8908981470347
 30
0.0
 10
712.7061949344835
 20
313.8908981470347
 30
0.0
 10
712.7061949344835
 20
313.8908981470347
 30
0.0
 10
712.7061949344835
 20
313.8908981470347
 30
0.0
 10
712.7061949344835
 20
317.13679188948
 30
0.0
 10
712.7061949344835
 20
317.13679188948
 30
0.0
 10
712.7061949344835
 20
317.13679188948
 30
0.0
 10
713.2407364449294
 20
317.13679188948
 30
0.0
 10
713.2407364449294
 20
317.13679188948
 30
0.0
 10
713.2407364449294
 20
317.13679188948
 30
0.0
 10
714.0893632387993
 20
315.6347069027147
 30
0.0
 10
714.0893632387993
 20
315.6347069027147
 30
0.0
 10
714.2929610484509
 20
315.2783458957532
 30
0.0
 10
714.4755506764734
 20
314.9049967912987
 30
0.0
 10
714.6153458604266
 20
314.5613444374246
 30
0.0
 10
714.6153458604266
 20
314.5613444374246
 30
0.0
 10
714.6283138737797
 20
314.5654942016973
 30
0.0
 10
714.6283138737797
 20
314.5654942016973
 30
0.0
 10
714.589928554252
 20
315.0067956961258
 30
0.0
 10
714.5772199011669
 20
315.4225502042471
 30
0.0
 10
714.5772199011669
 20
315.9402332973294
 30
0.0
 10
714.5772199011669
 20
315.9402332973294
 30
0.0
 10
714.5772199011669
 20
317.13679188948
 30
0.0
 10
714.5772199011669
 20
317.13679188948
 30
0.0
 10
714.5772199011669
 20
317.13679188948
 30
0.0
 10
715.0313597288126
 20
317.13679188948
 30
0.0
 10
715.0313597288126
 20
317.13679188948
 30
0.0
 10
715.0313597288126
 20
317.13679188948
 30
0.0
 10
715.0313597288126
 20
313.8908981470347
 30
0.0
 10
715.0313597288126
 20
313.8908981470347
 30
0.0
  0
HATCH
  5
9B
330
8C
100
AcDbEntity
  8
_U+56FE_U+5C42 1
 62
    18
420
   262144
100
AcDbHatch
 10
0.0
 20
0.0
 30
0.0
210
0.0
220
0.0
230
1.0
  2
SOLID
 70
     1
 71
     0
 91
        1
 92
        1
 93
        1
 72
     4
 94
        3
 73
     0
 74
     1
 95
       53
 96
       49
 40
0.0
 40
0.0
 40
0.0
 40
0.0
 40
1.0
 40
1.0
 40
1.0
 40
2.0
 40
2.0
 40
2.0
 40
3.0
 40
3.0
 40
3.0
 40
4.0
 40
4.0
 40
4.0
 40
5.0
 40
5.0
 40
5.0
 40
6.0
 40
6.0
 40
6.0
 40
7.0
 40
7.0
 40
7.0
 40
8.0
 40
8.0
 40
8.0
 40
9.0
 40
9.0
 40
9.0
 40
10.0
 40
10.0
 40
10.0
 40
11.0
 40
11.0
 40
11.0
 40
12.0
 40
12.0
 40
12.0
 40
13.0
 40
13.0
 40
13.0
 40
14.0
 40
14.0
 40
14.0
 40
15.0
 40
15.0
 40
15.0
 40
16.0
 40
16.0
 40
16.0
 40
16.0
 10
715.0313597288126
 20
313.8908981470347
 10
715.0313597288126
 20
313.8908981470347
 10
714.5349441776297
 20
313.8908981470347
 10
714.5349441776297
 20
313.8908981470347
 10
714.5349441776297
 20
313.8908981470347
 10
713.6819082592215
 20
315.4098415511604
 10
713.6819082592215
 20
315.4098415511604
 10
713.4868693383818
 20
315.7620527938485
 10
713.2915710572743
 20
316.1439607871167
 10
713.1432169845096
 20
316.5087510027575
 10
713.1432169845096
 20
316.5087510027575
 10
713.1260992068791
 20
316.5046012384846
 10
713.1260992068791
 20
316.5046012384846
 10
713.151516513053
 20
316.0929964946363
 10
713.1600754018683
 20
315.6729625421081
 10
713.1600754018683
 20
315.1044448366796
 10
713.1600754018683
 20
315.1044448366796
 10
713.1600754018683
 20
313.8908981470347
 10
713.1600754018683
 20
313.8908981470347
 10
713.1600754018683
 20
313.8908981470347
 10
712.7061949344835
 20
313.8908981470347
 10
712.7061949344835
 20
313.8908981470347
 10
712.7061949344835
 20
313.8908981470347
 10
712.7061949344835
 20
317.13679188948
 10
712.7061949344835
 20
317.13679188948
 10
712.7061949344835
 20
317.13679188948
 10
713.2407364449294
 20
317.13679188948
 10
713.2407364449294
 20
317.13679188948
 10
713.2407364449294
 20
317.13679188948
 10
714.0893632387993
 20
315.6347069027147
 10
714.0893632387993
 20
315.6347069027147
 10
714.2929610484509
 20
315.2783458957532
 10
714.4755506764734
 20
314.9049967912987
 10
714.6153458604266
 20
314.5613444374246
 10
714.6153458604266
 20
314.5613444374246
 10
714.6283138737797
 20
314.5654942016973
 10
714.6283138737797
 20
314.5654942016973
 10
714.589928554252
 20
315.0067956961258
 10
714.5772199011669
 20
315.4225502042471
 10
714.5772199011669
 20
315.9402332973294
 10
714.5772199011669
 20
315.9402332973294
 10
714.5772199011669
 20
317.13679188948
 10
714.5772199011669
 20
317.13679188948
 10
714.5772199011669
 20
317.13679188948
 10
715.0313597288126
 20
317.13679188948
 10
715.0313597288126
 20
317.13679188948
 10
715.0313597288126
 20
317.13679188948
 10
715.0313597288126
 20
313.8908981470347
 10
715.0313597288126
 20
313.8908981470347
 97
        0
 97
        0
 75
     2
 76
     1
 98
        0
  0
SPLINE
  5
9C
330
8C
100
AcDbEntity
  8
_U+56FE_U+5C42 1
370
     0
100
AcDbSpline
210
0.0
220
0.0
230
1.0
 70
    11
 71
     3
 72
    47
 73
    43
 74
     0
 42
0.0000000001
 43
0.0000000001
 12
1.0
 22
0.0
 32
0.0
 13
1.0
 23
0.0
 33
0.0
 40
0.0
 40
0.0
 40
0.0
 40
0.0
 40
1.0
 40
1.0
 40
1.0
 40
2.0
 40
2.0
 40
2.0
 40
3.0
 40
3.0
 40
3.0
 40
4.0
 40
4.0
 40
4.0
 40
5.0
 40
5.0
 40
5.0
 40
6.0
 40
6.0
 40
6.0
 40
7.0
 40
7.0
 40
7.0
 40
8.0
 40
8.0
 40
8.0
 40
9.0
 40
9.0
 40
9.0
 40
10.0
 40
10.0
 40
10.0
 40
11.0
 40
11.0
 40
11.0
 40
12.0
 40
12.0
 40
12.0
 40
13.0
 40
13.0
 40
13.0
 40
14.0
 40
14.0
 40
14.0
 40
14.0
 10
717.9413819253997
 20
313.8908981470347
 30
0.0
 10
717.9413819253997
 20
313.8908981470347
 30
0.0
 10
717.3684550954262
 20
313.8908981470347
 30
0.0
 10
717.3684550954262
 20
313.8908981470347
 30
0.0
 10
717.3684550954262
 20
313.8908981470347
 30
0.0
 10
716.4689936892115
 20
315.4225502042471
 30
0.0
 10
716.4689936892115
 20
315.4225502042471
 30
0.0
 10
716.4689936892115
 20
315.4225502042471
 30
0.0
 10
716.1974434895844
 20
315.083177294779
 30
0.0
 10
716.1974434895844
 20
315.083177294779
 30
0.0
 10
716.1974434895844
 20
315.083177294779
 30
0.0
 10
716.1974434895844
 20
313.8908981470347
 30
0.0
 10
716.1974434895844
 20
313.8908981470347
 30
0.0
 10
716.1974434895844
 20
313.8908981470347
 30
0.0
 10
715.7095868272136
 20
313.8908981470347
 30
0.0
 10
715.7095868272136
 20
313.8908981470347
 30
0.0
 10
715.7095868272136
 20
313.8908981470347
 30
0.0
 10
715.7095868272136
 20
317.13679188948
 30
0.0
 10
715.7095868272136
 20
317.13679188948
 30
0.0
 10
715.7095868272136
 20
317.13679188948
 30
0.0
 10
716.1974434895844
 20
317.13679188948
 30
0.0
 10
716.1974434895844
 20
317.13679188948
 30
0.0
 10
716.1974434895844
 20
317.13679188948
 30
0.0
 10
716.1974434895844
 20
315.613569040948
 30
0.0
 10
716.1974434895844
 20
315.613569040948
 30
0.0
 10
716.1974434895844
 20
315.613569040948
 30
0.0
 10
716.2101521426735
 20
315.613569040948
 30
0.0
 10
716.2101521426735
 20
315.613569040948
 30
0.0
 10
716.286663421457
 20
315.7407852519482
 30
0.0
 10
716.3670651042501
 20
315.8595722542687
 30
0.0
 10
716.4435763830407
 20
315.9742094923158
 30
0.0
 10
716.4435763830407
 20
315.9742094923158
 30
0.0
 10
717.2794945238217
 20
317.13679188948
 30
0.0
 10
717.2794945238217
 20
317.13679188948
 30
0.0
 10
717.2794945238217
 20
317.13679188948
 30
0.0
 10
717.877579299698
 20
317.13679188948
 30
0.0
 10
717.877579299698
 20
317.13679188948
 30
0.0
 10
717.877579299698
 20
317.13679188948
 30
0.0
 10
716.8126460430869
 20
315.7536235851685
 30
0.0
 10
716.8126460430869
 20
315.7536235851685
 30
0.0
 10
716.8126460430869
 20
315.7536235851685
 30
0.0
 10
717.9413819253997
 20
313.8908981470347
 30
0.0
 10
717.9413819253997
 20
313.8908981470347
 30
0.0
  0
HATCH
  5
9D
330
8C
100
AcDbEntity
  8
_U+56FE_U+5C42 1
 62
    18
420
   262144
100
AcDbHatch
 10
0.0
 20
0.0
 30
0.0
210
0.0
220
0.0
230
1.0
  2
SOLID
 70
     1
 71
     0
 91
        1
 92
        1
 93
        1
 72
     4
 94
        3
 73
     0
 74
     1
 95
       47
 96
       43
 40
0.0
 40
0.0
 40
0.0
 40
0.0
 40
1.0
 40
1.0
 40
1.0
 40
2.0
 40
2.0
 40
2.0
 40
3.0
 40
3.0
 40
3.0
 40
4.0
 40
4.0
 40
4.0
 40
5.0
 40
5.0
 40
5.0
 40
6.0
 40
6.0
 40
6.0
 40
7.0
 40
7.0
 40
7.0
 40
8.0
 40
8.0
 40
8.0
 40
9.0
 40
9.0
 40
9.0
 40
10.0
 40
10.0
 40
10.0
 40
11.0
 40
11.0
 40
11.0
 40
12.0
 40
12.0
 40
12.0
 40
13.0
 40
13.0
 40
13.0
 40
14.0
 40
14.0
 40
14.0
 40
14.0
 10
717.9413819253997
 20
313.8908981470347
 10
717.9413819253997
 20
313.8908981470347
 10
717.3684550954262
 20
313.8908981470347
 10
717.3684550954262
 20
313.8908981470347
 10
717.3684550954262
 20
313.8908981470347
 10
716.4689936892115
 20
315.4225502042471
 10
716.4689936892115
 20
315.4225502042471
 10
716.4689936892115
 20
315.4225502042471
 10
716.1974434895844
 20
315.083177294779
 10
716.1974434895844
 20
315.083177294779
 10
716.1974434895844
 20
315.083177294779
 10
716.1974434895844
 20
313.8908981470347
 10
716.1974434895844
 20
313.8908981470347
 10
716.1974434895844
 20
313.8908981470347
 10
715.7095868272136
 20
313.8908981470347
 10
715.7095868272136
 20
313.8908981470347
 10
715.7095868272136
 20
313.8908981470347
 10
715.7095868272136
 20
317.13679188948
 10
715.7095868272136
 20
317.13679188948
 10
715.7095868272136
 20
317.13679188948
 10
716.1974434895844
 20
317.13679188948
 10
716.1974434895844
 20
317.13679188948
 10
716.1974434895844
 20
317.13679188948
 10
716.1974434895844
 20
315.613569040948
 10
716.1974434895844
 20
315.613569040948
 10
716.1974434895844
 20
315.613569040948
 10
716.2101521426735
 20
315.613569040948
 10
716.2101521426735
 20
315.613569040948
 10
716.286663421457
 20
315.7407852519482
 10
716.3670651042501
 20
315.8595722542687
 10
716.4435763830407
 20
315.9742094923158
 10
716.4435763830407
 20
315.9742094923158
 10
717.2794945238217
 20
317.13679188948
 10
717.2794945238217
 20
317.13679188948
 10
717.2794945238217
 20
317.13679188948
 10
717.877579299698
 20
317.13679188948
 10
717.877579299698
 20
317.13679188948
 10
717.877579299698
 20
317.13679188948
 10
716.8126460430869
 20
315.7536235851685
 10
716.8126460430869
 20
315.7536235851685
 10
716.8126460430869
 20
315.7536235851685
 10
717.9413819253997
 20
313.8908981470347
 10
717.9413819253997
 20
313.8908981470347
 97
        0
 97
        0
 75
     2
 76
     1
 98
        0
  0
ENDBLK
  5
8F
330
8C
100
AcDbEntity
  8
0
100
AcDbBlockEnd
  0
BLOCK
  5
A0
330
9E
100
AcDbEntity
  8
0
100
AcDbBlockBegin
  2
block 6
 70
     0
 10
0.0
 20
0.0
 30
0.0
  3
block 6
  1

  0
SPLINE
  5
A2
330
9E
100
AcDbEntity
  8
_U+56FE_U+5C42 1
370
     0
100
AcDbSpline
210
0.0
220
0.0
230
1.0
 70
    11
 71
     3
 72
    47
 73
    43
 74
     0
 42
0.0000000001
 43
0.0000000001
 12
1.0
 22
0.0
 32
0.0
 13
1.0
 23
0.0
 33
0.0
 40
0.0
 40
0.0
 40
0.0
 40
0.0
 40
1.0
 40
1.0
 40
1.0
 40
2.0
 40
2.0
 40
2.0
 40
3.0
 40
3.0
 40
3.0
 40
4.0
 40
4.0
 40
4.0
 40
5.0
 40
5.0
 40
5.0
 40
6.0
 40
6.0
 40
6.0
 40
7.0
 40
7.0
 40
7.0
 40
8.0
 40
8.0
 40
8.0
 40
9.0
 40
9.0
 40
9.0
 40
10.0
 40
10.0
 40
10.0
 40
11.0
 40
11.0
 40
11.0
 40
12.0
 40
12.0
 40
12.0
 40
13.0
 40
13.0
 40
13.0
 40
14.0
 40
14.0
 40
14.0
 40
14.0
 10
626.0069854963393
 20
290.4058259633812
 30
0.0
 10
625.9009071471074
 20
290.4652194645413
 30
0.0
 10
625.6973093374557
 20
290.5501599520078
 30
0.0
 10
625.4301682623638
 20
290.5501599520078
 30
0.0
 10
625.0439808246896
 20
290.5501599520078
 30
0.0
 10
624.8826587385681
 20
290.3252946004538
 30
0.0
 10
624.8826587385681
 20
290.1172876662592
 30
0.0
 10
624.8826587385681
 20
289.8415877023585
 30
0.0
 10
625.0652483665906
 20
289.705812602544
 30
0.0
 10
625.4765937501702
 20
289.527632099065
 30
0.0
 10
625.9986859677913
 20
289.2984873031044
 30
0.0
 10
626.2489686255212
 20
289.0142284503891
 30
0.0
 10
626.2489686255212
 20
288.5686475115529
 30
0.0
 10
626.2489686255212
 20
288.0255471122987
 30
0.0
 10
625.8459227704851
 20
287.6182218128566
 30
0.0
 10
625.1160829789354
 20
287.6182218128566
 30
0.0
 10
624.810556584323
 20
287.6182218128566
 30
0.0
 10
624.4881717723505
 20
287.7073120645973
 30
0.0
 10
624.3309994504993
 20
287.8133904138311
 30
0.0
 10
624.3309994504993
 20
287.8133904138311
 30
0.0
 10
624.4414869242761
 20
288.2249951576787
 30
0.0
 10
624.4414869242761
 20
288.2249951576787
 30
0.0
 10
624.6155176634827
 20
288.1189168084449
 30
0.0
 10
624.8785089742983
 20
288.0341060011121
 30
0.0
 10
625.1456500493838
 20
288.0341060011121
 30
0.0
 10
625.5318374870606
 20
288.0341060011121
 30
0.0
 10
625.7481439498011
 20
288.2334243663597
 30
0.0
 10
625.7481439498011
 20
288.5262421078871
 30
0.0
 10
625.7481439498011
 20
288.8020717519215
 30
0.0
 10
625.5826720994054
 20
288.9716933665884
 30
0.0
 10
625.1967440219966
 20
289.1330154527092
 30
0.0
 10
624.7130371239025
 20
289.3281840536838
 30
0.0
 10
624.386243187389
 20
289.6208721150776
 30
0.0
 10
624.386243187389
 20
290.0621736095058
 30
0.0
 10
624.386243187389
 20
290.5755772581818
 30
0.0
 10
624.7978479312341
 20
290.9616350157218
 30
0.0
 10
625.4428769154521
 20
290.9616350157218
 30
0.0
 10
625.7525530743357
 20
290.9616350157218
 30
0.0
 10
625.9859773147094
 20
290.8853830972035
 30
0.0
 10
626.1257724986594
 20
290.8131512628221
 30
0.0
 10
626.1257724986594
 20
290.8131512628221
 30
0.0
 10
626.0069854963393
 20
290.4058259633812
 30
0.0
 10
626.0069854963393
 20
290.4058259633812
 30
0.0
  0
HATCH
  5
A3
330
9E
100
AcDbEntity
  8
_U+56FE_U+5C42 1
 62
    18
420
   262144
100
AcDbHatch
 10
0.0
 20
0.0
 30
0.0
210
0.0
220
0.0
230
1.0
  2
SOLID
 70
     1
 71
     0
 91
        1
 92
        1
 93
        1
 72
     4
 94
        3
 73
     0
 74
     1
 95
       47
 96
       43
 40
0.0
 40
0.0
 40
0.0
 40
0.0
 40
1.0
 40
1.0
 40
1.0
 40
2.0
 40
2.0
 40
2.0
 40
3.0
 40
3.0
 40
3.0
 40
4.0
 40
4.0
 40
4.0
 40
5.0
 40
5.0
 40
5.0
 40
6.0
 40
6.0
 40
6.0
 40
7.0
 40
7.0
 40
7.0
 40
8.0
 40
8.0
 40
8.0
 40
9.0
 40
9.0
 40
9.0
 40
10.0
 40
10.0
 40
10.0
 40
11.0
 40
11.0
 40
11.0
 40
12.0
 40
12.0
 40
12.0
 40
13.0
 40
13.0
 40
13.0
 40
14.0
 40
14.0
 40
14.0
 40
14.0
 10
626.0069854963393
 20
290.4058259633812
 10
625.9009071471074
 20
290.4652194645413
 10
625.6973093374557
 20
290.5501599520078
 10
625.4301682623638
 20
290.5501599520078
 10
625.0439808246896
 20
290.5501599520078
 10
624.8826587385681
 20
290.3252946004538
 10
624.8826587385681
 20
290.1172876662592
 10
624.8826587385681
 20
289.8415877023585
 10
625.0652483665906
 20
289.705812602544
 10
625.4765937501702
 20
289.527632099065
 10
625.9986859677913
 20
289.2984873031044
 10
626.2489686255212
 20
289.0142284503891
 10
626.2489686255212
 20
288.5686475115529
 10
626.2489686255212
 20
288.0255471122987
 10
625.8459227704851
 20
287.6182218128566
 10
625.1160829789354
 20
287.6182218128566
 10
624.810556584323
 20
287.6182218128566
 10
624.4881717723505
 20
287.7073120645973
 10
624.3309994504993
 20
287.8133904138311
 10
624.3309994504993
 20
287.8133904138311
 10
624.4414869242761
 20
288.2249951576787
 10
624.4414869242761
 20
288.2249951576787
 10
624.6155176634827
 20
288.1189168084449
 10
624.8785089742983
 20
288.0341060011121
 10
625.1456500493838
 20
288.0341060011121
 10
625.5318374870606
 20
288.0341060011121
 10
625.7481439498011
 20
288.2334243663597
 10
625.7481439498011
 20
288.5262421078871
 10
625.7481439498011
 20
288.8020717519215
 10
625.5826720994054
 20
288.9716933665884
 10
625.1967440219966
 20
289.1330154527092
 10
624.7130371239025
 20
289.3281840536838
 10
624.386243187389
 20
289.6208721150776
 10
624.386243187389
 20
290.0621736095058
 10
624.386243187389
 20
290.5755772581818
 10
624.7978479312341
 20
290.9616350157218
 10
625.4428769154521
 20
290.9616350157218
 10
625.7525530743357
 20
290.9616350157218
 10
625.9859773147094
 20
290.8853830972035
 10
626.1257724986594
 20
290.8131512628221
 10
626.1257724986594
 20
290.8131512628221
 10
626.0069854963393
 20
290.4058259633812
 10
626.0069854963393
 20
290.4058259633812
 97
        0
 97
        0
 75
     2
 76
     1
 98
        0
  0
SPLINE
  5
A4
330
9E
100
AcDbEntity
  8
_U+56FE_U+5C42 1
370
     0
100
AcDbSpline
210
0.0
220
0.0
230
1.0
 70
    11
 71
     3
 72
    35
 73
    31
 74
     0
 42
0.0000000001
 43
0.0000000001
 12
1.0
 22
0.0
 32
0.0
 13
1.0
 23
0.0
 33
0.0
 40
0.0
 40
0.0
 40
0.0
 40
0.0
 40
1.0
 40
1.0
 40
1.0
 40
2.0
 40
2.0
 40
2.0
 40
3.0
 40
3.0
 40
3.0
 40
4.0
 40
4.0
 40
4.0
 40
5.0
 40
5.0
 40
5.0
 40
6.0
 40
6.0
 40
6.0
 40
7.0
 40
7.0
 40
7.0
 40
8.0
 40
8.0
 40
8.0
 40
9.0
 40
9.0
 40
9.0
 40
10.0
 40
10.0
 40
10.0
 40
10.0
 10
628.8749913296571
 20
287.7539969126711
 30
0.0
 10
628.7390865497096
 20
287.68617420283
 30
0.0
 10
628.4633865858057
 20
287.6182218128566
 30
0.0
 10
628.1111753431253
 20
287.6182218128566
 30
0.0
 10
627.2073048123651
 20
287.6182218128566
 30
0.0
 10
626.6006611476773
 20
288.2164362688654
 30
0.0
 10
626.6006611476773
 20
289.2518024550294
 30
0.0
 10
626.6006611476773
 20
290.3549913510345
 30
0.0
 10
627.296524744237
 20
290.95748525145
 30
0.0
 10
628.1959861504562
 20
290.95748525145
 30
0.0
 10
628.5694649350439
 20
290.95748525145
 30
0.0
 10
628.7984800508697
 20
290.8768242083889
 30
0.0
 10
628.8876999827428
 20
290.8301393603152
 30
0.0
 10
628.8876999827428
 20
290.8301393603152
 30
0.0
 10
628.7816216335109
 20
290.427093505281
 30
0.0
 10
628.7816216335109
 20
290.427093505281
 30
0.0
 10
628.6457168535634
 20
290.4907664508477
 30
0.0
 10
628.4548276969942
 20
290.5458805076011
 30
0.0
 10
628.2131039280796
 20
290.5458805076011
 30
0.0
 10
627.5849333612267
 20
290.5458805076011
 30
0.0
 10
627.1183442407599
 20
290.1215671106659
 30
0.0
 10
627.1183442407599
 20
289.2772197612047
 30
0.0
 10
627.1183442407599
 20
288.4795572598134
 30
0.0
 10
627.534098748878
 20
288.0341060011121
 30
0.0
 10
628.2045450392676
 20
288.0341060011121
 30
0.0
 10
628.4252606265497
 20
288.0341060011121
 30
0.0
 10
628.650125978105
 20
288.0806611690509
 30
0.0
 10
628.7899211620551
 20
288.1486135590256
 30
0.0
 10
628.7899211620551
 20
288.1486135590256
 30
0.0
 10
628.8749913296571
 20
287.7539969126711
 30
0.0
 10
628.8749913296571
 20
287.7539969126711
 30
0.0
  0
HATCH
  5
A5
330
9E
100
AcDbEntity
  8
_U+56FE_U+5C42 1
 62
    18
420
   262144
100
AcDbHatch
 10
0.0
 20
0.0
 30
0.0
210
0.0
220
0.0
230
1.0
  2
SOLID
 70
     1
 71
     0
 91
        1
 92
        1
 93
        1
 72
     4
 94
        3
 73
     0
 74
     1
 95
       35
 96
       31
 40
0.0
 40
0.0
 40
0.0
 40
0.0
 40
1.0
 40
1.0
 40
1.0
 40
2.0
 40
2.0
 40
2.0
 40
3.0
 40
3.0
 40
3.0
 40
4.0
 40
4.0
 40
4.0
 40
5.0
 40
5.0
 40
5.0
 40
6.0
 40
6.0
 40
6.0
 40
7.0
 40
7.0
 40
7.0
 40
8.0
 40
8.0
 40
8.0
 40
9.0
 40
9.0
 40
9.0
 40
10.0
 40
10.0
 40
10.0
 40
10.0
 10
628.8749913296571
 20
287.7539969126711
 10
628.7390865497096
 20
287.68617420283
 10
628.4633865858057
 20
287.6182218128566
 10
628.1111753431253
 20
287.6182218128566
 10
627.2073048123651
 20
287.6182218128566
 10
626.6006611476773
 20
288.2164362688654
 10
626.6006611476773
 20
289.2518024550294
 10
626.6006611476773
 20
290.3549913510345
 10
627.296524744237
 20
290.95748525145
 10
628.1959861504562
 20
290.95748525145
 10
628.5694649350439
 20
290.95748525145
 10
628.7984800508697
 20
290.8768242083889
 10
628.8876999827428
 20
290.8301393603152
 10
628.8876999827428
 20
290.8301393603152
 10
628.7816216335109
 20
290.427093505281
 10
628.7816216335109
 20
290.427093505281
 10
628.6457168535634
 20
290.4907664508477
 10
628.4548276969942
 20
290.5458805076011
 10
628.2131039280796
 20
290.5458805076011
 10
627.5849333612267
 20
290.5458805076011
 10
627.1183442407599
 20
290.1215671106659
 10
627.1183442407599
 20
289.2772197612047
 10
627.1183442407599
 20
288.4795572598134
 10
627.534098748878
 20
288.0341060011121
 10
628.2045450392676
 20
288.0341060011121
 10
628.4252606265497
 20
288.0341060011121
 10
628.650125978105
 20
288.0806611690509
 10
628.7899211620551
 20
288.1486135590256
 10
628.7899211620551
 20
288.1486135590256
 10
628.8749913296571
 20
287.7539969126711
 10
628.8749913296571
 20
287.7539969126711
 97
        0
 97
        0
 75
     2
 76
     1
 98
        0
  0
SPLINE
  5
A6
330
9E
100
AcDbEntity
  8
_U+56FE_U+5C42 1
370
     0
100
AcDbSpline
210
0.0
220
0.0
230
1.0
 70
    11
 71
     3
 72
    47
 73
    43
 74
     0
 42
0.0000000001
 43
0.0000000001
 12
1.0
 22
0.0
 32
0.0
 13
1.0
 23
0.0
 33
0.0
 40
0.0
 40
0.0
 40
0.0
 40
0.0
 40
1.0
 40
1.0
 40
1.0
 40
2.0
 40
2.0
 40
2.0
 40
3.0
 40
3.0
 40
3.0
 40
4.0
 40
4.0
 40
4.0
 40
5.0
 40
5.0
 40
5.0
 40
6.0
 40
6.0
 40
6.0
 40
7.0
 40
7.0
 40
7.0
 40
8.0
 40
8.0
 40
8.0
 40
9.0
 40
9.0
 40
9.0
 40
10.0
 40
10.0
 40
10.0
 40
11.0
 40
11.0
 40
11.0
 40
12.0
 40
12.0
 40
12.0
 40
13.0
 40
13.0
 40
13.0
 40
14.0
 40
14.0
 40
14.0
 40
14.0
 10
630.754056464616
 20
289.2093970513636
 30
0.0
 10
630.9957802335307
 20
289.1203067996229
 30
0.0
 10
631.1316850134782
 20
288.8911620036623
 30
0.0
 10
631.2079369320008
 20
288.5473799696532
 30
0.0
 10
631.3054563924213
 20
288.1231962528529
 30
0.0
 10
631.3861174354818
 20
287.7879731076571
 30
0.0
 10
631.4499200611803
 20
287.6649066609303
 30
0.0
 10
631.4499200611803
 20
287.6649066609303
 30
0.0
 10
630.9405364966442
 20
287.6649066609303
 30
0.0
 10
630.9405364966442
 20
287.6649066609303
 30
0.0
 10
630.8938516485699
 20
287.7582763570765
 30
0.0
 10
630.8175997300503
 20
288.0425352097918
 30
0.0
 10
630.7369386869932
 20
288.4414313005543
 30
0.0
 10
630.6479781153847
 20
288.8741739061679
 30
0.0
 10
630.4908057935369
 20
289.0396457565631
 30
0.0
 10
630.1471534396609
 20
289.0396457565631
 30
0.0
 10
630.1471534396609
 20
289.0396457565631
 30
0.0
 10
629.8501859338597
 20
289.0396457565631
 30
0.0
 10
629.8501859338597
 20
289.0396457565631
 30
0.0
 10
629.8501859338597
 20
289.0396457565631
 30
0.0
 10
629.8501859338597
 20
287.6649066609303
 30
0.0
 10
629.8501859338597
 20
287.6649066609303
 30
0.0
 10
629.8501859338597
 20
287.6649066609303
 30
0.0
 10
629.3623292714921
 20
287.6649066609303
 30
0.0
 10
629.3623292714921
 20
287.6649066609303
 30
0.0
 10
629.3623292714921
 20
287.6649066609303
 30
0.0
 10
629.3623292714921
 20
290.8683949997092
 30
0.0
 10
629.3623292714921
 20
290.8683949997092
 30
0.0
 10
629.5700768454175
 20
290.9065209589696
 30
0.0
 10
629.8587448226712
 20
290.936217709549
 30
0.0
 10
630.1515625642024
 20
290.936217709549
 30
0.0
 10
630.5758759611358
 20
290.936217709549
 30
0.0
 10
630.8728434669368
 20
290.8598361108959
 30
0.0
 10
631.0764412765917
 20
290.6773761630089
 30
0.0
 10
631.2460628912573
 20
290.5288924101081
 30
0.0
 10
631.3352828231299
 20
290.3040270585528
 30
0.0
 10
631.3352828231299
 20
290.0410357477385
 30
0.0
 10
631.3352828231299
 20
289.6251515594843
 30
0.0
 10
631.0805910408621
 20
289.3408927067702
 30
0.0
 10
630.754056464616
 20
289.2178262600434
 30
0.0
 10
630.754056464616
 20
289.2178262600434
 30
0.0
 10
630.754056464616
 20
289.2093970513636
 30
0.0
 10
630.754056464616
 20
289.2093970513636
 30
0.0
  0
SPLINE
  5
A7
330
9E
100
AcDbEntity
  8
_U+56FE_U+5C42 1
370
     0
100
AcDbSpline
210
0.0
220
0.0
230
1.0
 70
    11
 71
     3
 72
    20
 73
    16
 74
     0
 42
0.0000000001
 43
0.0000000001
 12
1.0
 22
0.0
 32
0.0
 13
1.0
 23
0.0
 33
0.0
 40
0.0
 40
0.0
 40
0.0
 40
0.0
 40
1.0
 40
1.0
 40
1.0
 40
2.0
 40
2.0
 40
2.0
 40
3.0
 40
3.0
 40
3.0
 40
4.0
 40
4.0
 40
4.0
 40
5.0
 40
5.0
 40
5.0
 40
5.0
 10
630.1811296346469
 20
289.4087154166112
 30
0.0
 10
630.5885846142208
 20
289.4087154166112
 30
0.0
 10
630.8430170362244
 20
289.6421396569773
 30
0.0
 10
630.8430170362244
 20
289.9900714552594
 30
0.0
 10
630.8430170362244
 20
290.4101054077879
 30
0.0
 10
630.5460495304234
 20
290.5543097162821
 30
0.0
 10
630.1938382877358
 20
290.5543097162821
 30
0.0
 10
630.0283664373401
 20
290.5543097162821
 30
0.0
 10
629.9095794350199
 20
290.5416010631945
 30
0.0
 10
629.8501859338597
 20
290.5246129657014
 30
0.0
 10
629.8501859338597
 20
290.5246129657014
 30
0.0
 10
629.8501859338597
 20
289.4087154166112
 30
0.0
 10
629.8501859338597
 20
289.4087154166112
 30
0.0
 10
629.8501859338597
 20
289.4087154166112
 30
0.0
 10
630.1811296346469
 20
289.4087154166112
 30
0.0
 10
630.1811296346469
 20
289.4087154166112
 30
0.0
  0
HATCH
  5
A8
330
9E
100
AcDbEntity
  8
_U+56FE_U+5C42 1
 62
    18
420
   262144
100
AcDbHatch
 10
0.0
 20
0.0
 30
0.0
210
0.0
220
0.0
230
1.0
  2
SOLID
 70
     1
 71
     0
 91
        2
 92
        1
 93
        1
 72
     4
 94
        3
 73
     0
 74
     1
 95
       47
 96
       43
 40
0.0
 40
0.0
 40
0.0
 40
0.0
 40
1.0
 40
1.0
 40
1.0
 40
2.0
 40
2.0
 40
2.0
 40
3.0
 40
3.0
 40
3.0
 40
4.0
 40
4.0
 40
4.0
 40
5.0
 40
5.0
 40
5.0
 40
6.0
 40
6.0
 40
6.0
 40
7.0
 40
7.0
 40
7.0
 40
8.0
 40
8.0
 40
8.0
 40
9.0
 40
9.0
 40
9.0
 40
10.0
 40
10.0
 40
10.0
 40
11.0
 40
11.0
 40
11.0
 40
12.0
 40
12.0
 40
12.0
 40
13.0
 40
13.0
 40
13.0
 40
14.0
 40
14.0
 40
14.0
 40
14.0
 10
630.754056464616
 20
289.2093970513636
 10
630.9957802335307
 20
289.1203067996229
 10
631.1316850134782
 20
288.8911620036623
 10
631.2079369320008
 20
288.5473799696532
 10
631.3054563924213
 20
288.1231962528529
 10
631.3861174354818
 20
287.7879731076571
 10
631.4499200611803
 20
287.6649066609303
 10
631.4499200611803
 20
287.6649066609303
 10
630.9405364966442
 20
287.6649066609303
 10
630.9405364966442
 20
287.6649066609303
 10
630.8938516485699
 20
287.7582763570765
 10
630.8175997300503
 20
288.0425352097918
 10
630.7369386869932
 20
288.4414313005543
 10
630.6479781153847
 20
288.8741739061679
 10
630.4908057935369
 20
289.0396457565631
 10
630.1471534396609
 20
289.0396457565631
 10
630.1471534396609
 20
289.0396457565631
 10
629.8501859338597
 20
289.0396457565631
 10
629.8501859338597
 20
289.0396457565631
 10
629.8501859338597
 20
289.0396457565631
 10
629.8501859338597
 20
287.6649066609303
 10
629.8501859338597
 20
287.6649066609303
 10
629.8501859338597
 20
287.6649066609303
 10
629.3623292714921
 20
287.6649066609303
 10
629.3623292714921
 20
287.6649066609303
 10
629.3623292714921
 20
287.6649066609303
 10
629.3623292714921
 20
290.8683949997092
 10
629.3623292714921
 20
290.8683949997092
 10
629.5700768454175
 20
290.9065209589696
 10
629.8587448226712
 20
290.936217709549
 10
630.1515625642024
 20
290.936217709549
 10
630.5758759611358
 20
290.936217709549
 10
630.8728434669368
 20
290.8598361108959
 10
631.0764412765917
 20
290.6773761630089
 10
631.2460628912573
 20
290.5288924101081
 10
631.3352828231299
 20
290.3040270585528
 10
631.3352828231299
 20
290.0410357477385
 10
631.3352828231299
 20
289.6251515594843
 10
631.0805910408621
 20
289.3408927067702
 10
630.754056464616
 20
289.2178262600434
 10
630.754056464616
 20
289.2178262600434
 10
630.754056464616
 20
289.2093970513636
 10
630.754056464616
 20
289.2093970513636
 97
        0
 97
        0
 92
        1
 93
        1
 72
     4
 94
        3
 73
     0
 74
     1
 95
       20
 96
       16
 40
0.0
 40
0.0
 40
0.0
 40
0.0
 40
1.0
 40
1.0
 40
1.0
 40
2.0
 40
2.0
 40
2.0
 40
3.0
 40
3.0
 40
3.0
 40
4.0
 40
4.0
 40
4.0
 40
5.0
 40
5.0
 40
5.0
 40
5.0
 10
630.1811296346469
 20
289.4087154166112
 10
630.5885846142208
 20
289.4087154166112
 10
630.8430170362244
 20
289.6421396569773
 10
630.8430170362244
 20
289.9900714552594
 10
630.8430170362244
 20
290.4101054077879
 10
630.5460495304234
 20
290.5543097162821
 10
630.1938382877358
 20
290.5543097162821
 10
630.0283664373401
 20
290.5543097162821
 10
629.9095794350199
 20
290.5416010631945
 10
629.8501859338597
 20
290.5246129657014
 10
629.8501859338597
 20
290.5246129657014
 10
629.8501859338597
 20
289.4087154166112
 10
629.8501859338597
 20
289.4087154166112
 10
629.8501859338597
 20
289.4087154166112
 10
630.1811296346469
 20
289.4087154166112
 10
630.1811296346469
 20
289.4087154166112
 97
        0
 97
        0
 75
     2
 76
     1
 98
        0
  0
POLYLINE
  5
A9
330
9E
100
AcDbEntity
  8
_U+56FE_U+5C42 1
370
     0
100
AcDb2dPolyline
 66
     1
 10
0.0
 20
0.0
 30
0.0
  0
VERTEX
  5
AA
330
A9
100
AcDbEntity
  8
_U+56FE_U+5C42 1
370
     0
100
AcDbVertex
100
AcDb2dVertex
 10
633.6557791326558
 20
287.6649066609303
 30
0.0
  0
VERTEX
  5
AB
330
A9
100
AcDbEntity
  8
_U+56FE_U+5C42 1
370
     0
100
AcDbVertex
100
AcDb2dVertex
 10
631.8864233906666
 20
287.6649066609303
 30
0.0
  0
VERTEX
  5
AC
330
A9
100
AcDbEntity
  8
_U+56FE_U+5C42 1
370
     0
100
AcDbVertex
100
AcDb2dVertex
 10
631.8864233906666
 20
290.9108004033763
 30
0.0
  0
VERTEX
  5
AD
330
A9
100
AcDbEntity
  8
_U+56FE_U+5C42 1
370
     0
100
AcDbVertex
100
AcDb2dVertex
 10
633.5836769784067
 20
290.9108004033763
 30
0.0
  0
VERTEX
  5
AE
330
A9
100
AcDbEntity
  8
_U+56FE_U+5C42 1
370
     0
100
AcDbVertex
100
AcDb2dVertex
 10
633.5836769784067
 20
290.4991956595274
 30
0.0
  0
VERTEX
  5
AF
330
A9
100
AcDbEntity
  8
_U+56FE_U+5C42 1
370
     0
100
AcDbVertex
100
AcDb2dVertex
 10
632.3784298173078
 20
290.4991956595274
 30
0.0
  0
VERTEX
  5
B0
330
A9
100
AcDbEntity
  8
_U+56FE_U+5C42 1
370
     0
100
AcDbVertex
100
AcDb2dVertex
 10
632.3784298173078
 20
289.5614786139175
 30
0.0
  0
VERTEX
  5
B1
330
A9
100
AcDbEntity
  8
_U+56FE_U+5C42 1
370
     0
100
AcDbVertex
100
AcDb2dVertex
 10
633.5157245884315
 20
289.5614786139175
 30
0.0
  0
VERTEX
  5
B2
330
A9
100
AcDbEntity
  8
_U+56FE_U+5C42 1
370
     0
100
AcDbVertex
100
AcDb2dVertex
 10
633.5157245884315
 20
289.1541533144766
 30
0.0
  0
VERTEX
  5
B3
330
A9
100
AcDbEntity
  8
_U+56FE_U+5C42 1
370
     0
100
AcDbVertex
100
AcDb2dVertex
 10
632.3784298173078
 20
289.1541533144766
 30
0.0
  0
VERTEX
  5
B4
330
A9
100
AcDbEntity
  8
_U+56FE_U+5C42 1
370
     0
100
AcDbVertex
100
AcDb2dVertex
 10
632.3784298173078
 20
288.0765114047779
 30
0.0
  0
VERTEX
  5
B5
330
A9
100
AcDbEntity
  8
_U+56FE_U+5C42 1
370
     0
100
AcDbVertex
100
AcDb2dVertex
 10
633.6557791326558
 20
288.0765114047779
 30
0.0
  0
VERTEX
  5
B6
330
A9
100
AcDbEntity
  8
_U+56FE_U+5C42 1
370
     0
100
AcDbVertex
100
AcDb2dVertex
 10
633.6557791326558
 20
287.6649066609303
 30
0.0
  0
SEQEND
  5
B7
330
A9
100
AcDbEntity
  8
_U+56FE_U+5C42 1
370
     0
  0
HATCH
  5
B8
330
9E
100
AcDbEntity
  8
_U+56FE_U+5C42 1
 62
    18
420
   262144
100
AcDbHatch
 10
0.0
 20
0.0
 30
0.0
210
0.0
220
0.0
230
1.0
  2
SOLID
 70
     1
 71
     0
 91
        1
 92
        1
 93
       12
 72
     1
 10
633.6557791326558
 20
287.6649066609303
 11
631.8864233906666
 21
287.6649066609303
 72
     1
 10
631.8864233906666
 20
287.6649066609303
 11
631.8864233906666
 21
290.9108004033763
 72
     1
 10
631.8864233906666
 20
290.9108004033763
 11
633.5836769784067
 21
290.9108004033763
 72
     1
 10
633.5836769784067
 20
290.9108004033763
 11
633.5836769784067
 21
290.4991956595274
 72
     1
 10
633.5836769784067
 20
290.4991956595274
 11
632.3784298173078
 21
290.4991956595274
 72
     1
 10
632.3784298173078
 20
290.4991956595274
 11
632.3784298173078
 21
289.5614786139175
 72
     1
 10
632.3784298173078
 20
289.5614786139175
 11
633.5157245884315
 21
289.5614786139175
 72
     1
 10
633.5157245884315
 20
289.5614786139175
 11
633.5157245884315
 21
289.1541533144766
 72
     1
 10
633.5157245884315
 20
289.1541533144766
 11
632.3784298173078
 21
289.1541533144766
 72
     1
 10
632.3784298173078
 20
289.1541533144766
 11
632.3784298173078
 21
288.0765114047779
 72
     1
 10
632.3784298173078
 20
288.0765114047779
 11
633.6557791326558
 21
288.0765114047779
 72
     1
 10
633.6557791326558
 20
288.0765114047779
 11
633.6557791326558
 21
287.6649066609303
 97
        0
 75
     2
 76
     1
 98
        0
  0
SPLINE
  5
B9
330
9E
100
AcDbEntity
  8
_U+56FE_U+5C42 1
370
     0
100
AcDbSpline
210
0.0
220
0.0
230
1.0
 70
    11
 71
     3
 72
    71
 73
    67
 74
     0
 42
0.0000000001
 43
0.0000000001
 12
1.0
 22
0.0
 32
0.0
 13
1.0
 23
0.0
 33
0.0
 40
0.0
 40
0.0
 40
0.0
 40
0.0
 40
1.0
 40
1.0
 40
1.0
 40
2.0
 40
2.0
 40
2.0
 40
3.0
 40
3.0
 40
3.0
 40
4.0
 40
4.0
 40
4.0
 40
5.0
 40
5.0
 40
5.0
 40
6.0
 40
6.0
 40
6.0
 40
7.0
 40
7.0
 40
7.0
 40
8.0
 40
8.0
 40
8.0
 40
9.0
 40
9.0
 40
9.0
 40
10.0
 40
10.0
 40
10.0
 40
11.0
 40
11.0
 40
11.0
 40
12.0
 40
12.0
 40
12.0
 40
13.0
 40
13.0
 40
13.0
 40
14.0
 40
14.0
 40
14.0
 40
15.0
 40
15.0
 40
15.0
 40
16.0
 40
16.0
 40
16.0
 40
17.0
 40
17.0
 40
17.0
 40
18.0
 40
18.0
 40
18.0
 40
19.0
 40
19.0
 40
19.0
 40
20.0
 40
20.0
 40
20.0
 40
21.0
 40
21.0
 40
21.0
 40
22.0
 40
22.0
 40
22.0
 40
22.0
 10
637.6732696696445
 20
290.9108004033763
 30
0.0
 10
637.6732696696445
 20
290.9108004033763
 30
0.0
 10
636.8415012931405
 20
287.6649066609303
 30
0.0
 10
636.8415012931405
 20
287.6649066609303
 30
0.0
 10
636.8415012931405
 20
287.6649066609303
 30
0.0
 10
636.3282273245956
 20
287.6649066609303
 30
0.0
 10
636.3282273245956
 20
287.6649066609303
 30
0.0
 10
636.3282273245956
 20
287.6649066609303
 30
0.0
 10
635.9760160819075
 20
289.2305349131297
 30
0.0
 10
635.9760160819075
 20
289.2305349131297
 30
0.0
 10
635.8912052745733
 20
289.6081634619912
 30
0.0
 10
635.8274026488748
 20
289.9349573985047
 30
0.0
 10
635.7892766896118
 20
290.2827595166531
 30
0.0
 10
635.7892766896118
 20
290.2827595166531
 30
0.0
 10
635.7765680365262
 20
290.2827595166531
 30
0.0
 10
635.7765680365262
 20
290.2827595166531
 30
0.0
 10
635.7257334241781
 20
289.9349573985047
 30
0.0
 10
635.6536312699324
 20
289.6167223508058
 30
0.0
 10
635.5558524492445
 20
289.2305349131297
 30
0.0
 10
635.5558524492445
 20
289.2305349131297
 30
0.0
 10
635.169924371839
 20
287.6649066609303
 30
0.0
 10
635.169924371839
 20
287.6649066609303
 30
0.0
 10
635.169924371839
 20
287.6649066609303
 30
0.0
 10
634.6522412787557
 20
287.6649066609303
 30
0.0
 10
634.6522412787557
 20
287.6649066609303
 30
0.0
 10
634.6522412787557
 20
287.6649066609303
 30
0.0
 10
633.8925750564936
 20
290.9108004033763
 30
0.0
 10
633.8925750564936
 20
290.9108004033763
 30
0.0
 10
633.8925750564936
 20
290.9108004033763
 30
0.0
 10
634.4146672741147
 20
290.9108004033763
 30
0.0
 10
634.4146672741147
 20
290.9108004033763
 30
0.0
 10
634.4146672741147
 20
290.9108004033763
 30
0.0
 10
634.7370520860903
 20
289.3663100129429
 30
0.0
 10
634.7370520860903
 20
289.3663100129429
 30
0.0
 10
634.8177131291508
 20
288.9675436023153
 30
0.0
 10
634.8898152833966
 20
288.5686475115529
 30
0.0
 10
634.945059020283
 20
288.2334243663597
 30
0.0
 10
634.945059020283
 20
288.2334243663597
 30
0.0
 10
634.9533585488304
 20
288.2334243663597
 30
0.0
 10
634.9533585488304
 20
288.2334243663597
 30
0.0
 10
635.0044525214431
 20
288.5813561646405
 30
0.0
 10
635.09782221759
 20
288.9632641579087
 30
0.0
 10
635.1909325534752
 20
289.3748689017563
 30
0.0
 10
635.1909325534752
 20
289.3748689017563
 30
0.0
 10
635.5602615737862
 20
290.9108004033763
 30
0.0
 10
635.5602615737862
 20
290.9108004033763
 30
0.0
 10
635.5602615737862
 20
290.9108004033763
 30
0.0
 10
636.0522680004269
 20
290.9108004033763
 30
0.0
 10
636.0522680004269
 20
290.9108004033763
 30
0.0
 10
636.0522680004269
 20
290.9108004033763
 30
0.0
 10
636.3917705900261
 20
289.3663100129429
 30
0.0
 10
636.3917705900261
 20
289.3663100129429
 30
0.0
 10
636.4724316330903
 20
288.9845316998084
 30
0.0
 10
636.5486835516099
 20
288.6110529152212
 30
0.0
 10
636.5953683996842
 20
288.2377038107651
 30
0.0
 10
636.5953683996842
 20
288.2377038107651
 30
0.0
 10
636.6080770527699
 20
288.2377038107651
 30
0.0
 10
636.6080770527699
 20
288.2377038107651
 30
0.0
 10
636.6633207896564
 20
288.6196118040332
 30
0.0
 10
636.7398320684431
 20
288.9845316998084
 30
0.0
 10
636.824642875774
 20
289.3790186660306
 30
0.0
 10
636.824642875774
 20
289.3790186660306
 30
0.0
 10
637.1724449939276
 20
290.9108004033763
 30
0.0
 10
637.1724449939276
 20
290.9108004033763
 30
0.0
 10
637.1724449939276
 20
290.9108004033763
 30
0.0
 10
637.6732696696445
 20
290.9108004033763
 30
0.0
 10
637.6732696696445
 20
290.9108004033763
 30
0.0
  0
HATCH
  5
BA
330
9E
100
AcDbEntity
  8
_U+56FE_U+5C42 1
 62
    18
420
   262144
100
AcDbHatch
 10
0.0
 20
0.0
 30
0.0
210
0.0
220
0.0
230
1.0
  2
SOLID
 70
     1
 71
     0
 91
        1
 92
        1
 93
        1
 72
     4
 94
        3
 73
     0
 74
     1
 95
       71
 96
       67
 40
0.0
 40
0.0
 40
0.0
 40
0.0
 40
1.0
 40
1.0
 40
1.0
 40
2.0
 40
2.0
 40
2.0
 40
3.0
 40
3.0
 40
3.0
 40
4.0
 40
4.0
 40
4.0
 40
5.0
 40
5.0
 40
5.0
 40
6.0
 40
6.0
 40
6.0
 40
7.0
 40
7.0
 40
7.0
 40
8.0
 40
8.0
 40
8.0
 40
9.0
 40
9.0
 40
9.0
 40
10.0
 40
10.0
 40
10.0
 40
11.0
 40
11.0
 40
11.0
 40
12.0
 40
12.0
 40
12.0
 40
13.0
 40
13.0
 40
13.0
 40
14.0
 40
14.0
 40
14.0
 40
15.0
 40
15.0
 40
15.0
 40
16.0
 40
16.0
 40
16.0
 40
17.0
 40
17.0
 40
17.0
 40
18.0
 40
18.0
 40
18.0
 40
19.0
 40
19.0
 40
19.0
 40
20.0
 40
20.0
 40
20.0
 40
21.0
 40
21.0
 40
21.0
 40
22.0
 40
22.0
 40
22.0
 40
22.0
 10
637.6732696696445
 20
290.9108004033763
 10
637.6732696696445
 20
290.9108004033763
 10
636.8415012931405
 20
287.6649066609303
 10
636.8415012931405
 20
287.6649066609303
 10
636.8415012931405
 20
287.6649066609303
 10
636.3282273245956
 20
287.6649066609303
 10
636.3282273245956
 20
287.6649066609303
 10
636.3282273245956
 20
287.6649066609303
 10
635.9760160819075
 20
289.2305349131297
 10
635.9760160819075
 20
289.2305349131297
 10
635.8912052745733
 20
289.6081634619912
 10
635.8274026488748
 20
289.9349573985047
 10
635.7892766896118
 20
290.2827595166531
 10
635.7892766896118
 20
290.2827595166531
 10
635.7765680365262
 20
290.2827595166531
 10
635.7765680365262
 20
290.2827595166531
 10
635.7257334241781
 20
289.9349573985047
 10
635.6536312699324
 20
289.6167223508058
 10
635.5558524492445
 20
289.2305349131297
 10
635.5558524492445
 20
289.2305349131297
 10
635.169924371839
 20
287.6649066609303
 10
635.169924371839
 20
287.6649066609303
 10
635.169924371839
 20
287.6649066609303
 10
634.6522412787557
 20
287.6649066609303
 10
634.6522412787557
 20
287.6649066609303
 10
634.6522412787557
 20
287.6649066609303
 10
633.8925750564936
 20
290.9108004033763
 10
633.8925750564936
 20
290.9108004033763
 10
633.8925750564936
 20
290.9108004033763
 10
634.4146672741147
 20
290.9108004033763
 10
634.4146672741147
 20
290.9108004033763
 10
634.4146672741147
 20
290.9108004033763
 10
634.7370520860903
 20
289.3663100129429
 10
634.7370520860903
 20
289.3663100129429
 10
634.8177131291508
 20
288.9675436023153
 10
634.8898152833966
 20
288.5686475115529
 10
634.945059020283
 20
288.2334243663597
 10
634.945059020283
 20
288.2334243663597
 10
634.9533585488304
 20
288.2334243663597
 10
634.9533585488304
 20
288.2334243663597
 10
635.0044525214431
 20
288.5813561646405
 10
635.09782221759
 20
288.9632641579087
 10
635.1909325534752
 20
289.3748689017563
 10
635.1909325534752
 20
289.3748689017563
 10
635.5602615737862
 20
290.9108004033763
 10
635.5602615737862
 20
290.9108004033763
 10
635.5602615737862
 20
290.9108004033763
 10
636.0522680004269
 20
290.9108004033763
 10
636.0522680004269
 20
290.9108004033763
 10
636.0522680004269
 20
290.9108004033763
 10
636.3917705900261
 20
289.3663100129429
 10
636.3917705900261
 20
289.3663100129429
 10
636.4724316330903
 20
288.9845316998084
 10
636.5486835516099
 20
288.6110529152212
 10
636.5953683996842
 20
288.2377038107651
 10
636.5953683996842
 20
288.2377038107651
 10
636.6080770527699
 20
288.2377038107651
 10
636.6080770527699
 20
288.2377038107651
 10
636.6633207896564
 20
288.6196118040332
 10
636.7398320684431
 20
288.9845316998084
 10
636.824642875774
 20
289.3790186660306
 10
636.824642875774
 20
289.3790186660306
 10
637.1724449939276
 20
290.9108004033763
 10
637.1724449939276
 20
290.9108004033763
 10
637.1724449939276
 20
290.9108004033763
 10
637.6732696696445
 20
290.9108004033763
 10
637.6732696696445
 20
290.9108004033763
 97
        0
 97
        0
 75
     2
 76
     1
 98
        0
  0
SPLINE
  5
BB
330
9E
100
AcDbEntity
  8
_U+56FE_U+5C42 1
370
     0
100
AcDbSpline
210
0.0
220
0.0
230
1.0
 70
    11
 71
     3
 72
    47
 73
    43
 74
     0
 42
0.0000000001
 43
0.0000000001
 12
1.0
 22
0.0
 32
0.0
 13
1.0
 23
0.0
 33
0.0
 40
0.0
 40
0.0
 40
0.0
 40
0.0
 40
1.0
 40
1.0
 40
1.0
 40
2.0
 40
2.0
 40
2.0
 40
3.0
 40
3.0
 40
3.0
 40
4.0
 40
4.0
 40
4.0
 40
5.0
 40
5.0
 40
5.0
 40
6.0
 40
6.0
 40
6.0
 40
7.0
 40
7.0
 40
7.0
 40
8.0
 40
8.0
 40
8.0
 40
9.0
 40
9.0
 40
9.0
 40
10.0
 40
10.0
 40
10.0
 40
11.0
 40
11.0
 40
11.0
 40
12.0
 40
12.0
 40
12.0
 40
13.0
 40
13.0
 40
13.0
 40
14.0
 40
14.0
 40
14.0
 40
14.0
 10
639.5857922790574
 20
290.4058259633812
 30
0.0
 10
639.4797139298262
 20
290.4652194645413
 30
0.0
 10
639.2761161201745
 20
290.5501599520078
 30
0.0
 10
639.0089750450819
 20
290.5501599520078
 30
0.0
 10
638.6227876074083
 20
290.5501599520078
 30
0.0
 10
638.4614655212869
 20
290.3252946004538
 30
0.0
 10
638.4614655212869
 20
290.1172876662592
 30
0.0
 10
638.4614655212869
 20
289.8415877023585
 30
0.0
 10
638.6440551493088
 20
289.705812602544
 30
0.0
 10
639.055400532889
 20
289.527632099065
 30
0.0
 10
639.5774927505139
 20
289.2984873031044
 30
0.0
 10
639.8277754082438
 20
289.0142284503891
 30
0.0
 10
639.8277754082438
 20
288.5686475115529
 30
0.0
 10
639.8277754082438
 20
288.0255471122987
 30
0.0
 10
639.4247295532039
 20
287.6182218128566
 30
0.0
 10
638.6948897616542
 20
287.6182218128566
 30
0.0
 10
638.389363367041
 20
287.6182218128566
 30
0.0
 10
638.0669785550692
 20
287.7073120645973
 30
0.0
 10
637.9098062332181
 20
287.8133904138311
 30
0.0
 10
637.9098062332181
 20
287.8133904138311
 30
0.0
 10
638.0202937069942
 20
288.2249951576787
 30
0.0
 10
638.0202937069942
 20
288.2249951576787
 30
0.0
 10
638.1943244462014
 20
288.1189168084449
 30
0.0
 10
638.4573157570164
 20
288.0341060011121
 30
0.0
 10
638.7244568321019
 20
288.0341060011121
 30
0.0
 10
639.1106442697761
 20
288.0341060011121
 30
0.0
 10
639.3269507325199
 20
288.2334243663597
 30
0.0
 10
639.3269507325199
 20
288.5262421078871
 30
0.0
 10
639.3269507325199
 20
288.8020717519215
 30
0.0
 10
639.1614788821241
 20
288.9716933665884
 30
0.0
 10
638.7755508047146
 20
289.1330154527092
 30
0.0
 10
638.2918439066212
 20
289.3281840536838
 30
0.0
 10
637.9650499701078
 20
289.6208721150776
 30
0.0
 10
637.9650499701078
 20
290.0621736095058
 30
0.0
 10
637.9650499701078
 20
290.5755772581818
 30
0.0
 10
638.376654713956
 20
290.9616350157218
 30
0.0
 10
639.0216836981708
 20
290.9616350157218
 30
0.0
 10
639.3313598570609
 20
290.9616350157218
 30
0.0
 10
639.5647840974282
 20
290.8853830972035
 30
0.0
 10
639.7045792813782
 20
290.8131512628221
 30
0.0
 10
639.7045792813782
 20
290.8131512628221
 30
0.0
 10
639.5857922790574
 20
290.4058259633812
 30
0.0
 10
639.5857922790574
 20
290.4058259633812
 30
0.0
  0
HATCH
  5
BC
330
9E
100
AcDbEntity
  8
_U+56FE_U+5C42 1
 62
    18
420
   262144
100
AcDbHatch
 10
0.0
 20
0.0
 30
0.0
210
0.0
220
0.0
230
1.0
  2
SOLID
 70
     1
 71
     0
 91
        1
 92
        1
 93
        1
 72
     4
 94
        3
 73
     0
 74
     1
 95
       47
 96
       43
 40
0.0
 40
0.0
 40
0.0
 40
0.0
 40
1.0
 40
1.0
 40
1.0
 40
2.0
 40
2.0
 40
2.0
 40
3.0
 40
3.0
 40
3.0
 40
4.0
 40
4.0
 40
4.0
 40
5.0
 40
5.0
 40
5.0
 40
6.0
 40
6.0
 40
6.0
 40
7.0
 40
7.0
 40
7.0
 40
8.0
 40
8.0
 40
8.0
 40
9.0
 40
9.0
 40
9.0
 40
10.0
 40
10.0
 40
10.0
 40
11.0
 40
11.0
 40
11.0
 40
12.0
 40
12.0
 40
12.0
 40
13.0
 40
13.0
 40
13.0
 40
14.0
 40
14.0
 40
14.0
 40
14.0
 10
639.5857922790574
 20
290.4058259633812
 10
639.4797139298262
 20
290.4652194645413
 10
639.2761161201745
 20
290.5501599520078
 10
639.0089750450819
 20
290.5501599520078
 10
638.6227876074083
 20
290.5501599520078
 10
638.4614655212869
 20
290.3252946004538
 10
638.4614655212869
 20
290.1172876662592
 10
638.4614655212869
 20
289.8415877023585
 10
638.6440551493088
 20
289.705812602544
 10
639.055400532889
 20
289.527632099065
 10
639.5774927505139
 20
289.2984873031044
 10
639.8277754082438
 20
289.0142284503891
 10
639.8277754082438
 20
288.5686475115529
 10
639.8277754082438
 20
288.0255471122987
 10
639.4247295532039
 20
287.6182218128566
 10
638.6948897616542
 20
287.6182218128566
 10
638.389363367041
 20
287.6182218128566
 10
638.0669785550692
 20
287.7073120645973
 10
637.9098062332181
 20
287.8133904138311
 10
637.9098062332181
 20
287.8133904138311
 10
638.0202937069942
 20
288.2249951576787
 10
638.0202937069942
 20
288.2249951576787
 10
638.1943244462014
 20
288.1189168084449
 10
638.4573157570164
 20
288.0341060011121
 10
638.7244568321019
 20
288.0341060011121
 10
639.1106442697761
 20
288.0341060011121
 10
639.3269507325199
 20
288.2334243663597
 10
639.3269507325199
 20
288.5262421078871
 10
639.3269507325199
 20
288.8020717519215
 10
639.1614788821241
 20
288.9716933665884
 10
638.7755508047146
 20
289.1330154527092
 10
638.2918439066212
 20
289.3281840536838
 10
637.9650499701078
 20
289.6208721150776
 10
637.9650499701078
 20
290.0621736095058
 10
637.9650499701078
 20
290.5755772581818
 10
638.376654713956
 20
290.9616350157218
 10
639.0216836981708
 20
290.9616350157218
 10
639.3313598570609
 20
290.9616350157218
 10
639.5647840974282
 20
290.8853830972035
 10
639.7045792813782
 20
290.8131512628221
 10
639.7045792813782
 20
290.8131512628221
 10
639.5857922790574
 20
290.4058259633812
 10
639.5857922790574
 20
290.4058259633812
 97
        0
 97
        0
 75
     2
 76
     1
 98
        0
  0
ENDBLK
  5
A1
330
9E
100
AcDbEntity
  8
0
100
AcDbBlockEnd
  0
BLOCK
  5
BF
330
BD
100
AcDbEntity
  8
0
100
AcDbBlockBegin
  2
block 7
 70
     0
 10
0.0
 20
0.0
 30
0.0
  3
block 7
  1

  0
POLYLINE
  5
C1
330
BD
100
AcDbEntity
  8
_U+56FE_U+5C42 1
370
     0
100
AcDb2dPolyline
 66
     1
 10
0.0
 20
0.0
 30
0.0
  0
VERTEX
  5
C2
330
C1
100
AcDbEntity
  8
_U+56FE_U+5C42 1
370
     0
100
AcDbVertex
100
AcDb2dVertex
 10
596.8668220493814
 20
292.8707859416629
 30
0.0
  0
VERTEX
  5
C3
330
C1
100
AcDbEntity
  8
_U+56FE_U+5C42 1
370
     0
100
AcDbVertex
100
AcDb2dVertex
 10
596.8668220493814
 20
296.1166796841089
 30
0.0
  0
VERTEX
  5
C4
330
C1
100
AcDbEntity
  8
_U+56FE_U+5C42 1
370
     0
100
AcDbVertex
100
AcDb2dVertex
 10
598.5556464284407
 20
296.1166796841089
 30
0.0
  0
VERTEX
  5
C5
330
C1
100
AcDbEntity
  8
_U+56FE_U+5C42 1
370
     0
100
AcDbVertex
100
AcDb2dVertex
 10
598.5556464284407
 20
295.70507494026
 30
0.0
  0
VERTEX
  5
C6
330
C1
100
AcDbEntity
  8
_U+56FE_U+5C42 1
370
     0
100
AcDbVertex
100
AcDb2dVertex
 10
597.3590878362869
 20
295.70507494026
 30
0.0
  0
VERTEX
  5
C7
330
C1
100
AcDbEntity
  8
_U+56FE_U+5C42 1
370
     0
100
AcDbVertex
100
AcDb2dVertex
 10
597.3590878362869
 20
294.703814629217
 30
0.0
  0
VERTEX
  5
C8
330
C1
100
AcDbEntity
  8
_U+56FE_U+5C42 1
370
     0
100
AcDbVertex
100
AcDb2dVertex
 10
598.4707059409724
 20
294.703814629217
 30
0.0
  0
VERTEX
  5
C9
330
C1
100
AcDbEntity
  8
_U+56FE_U+5C42 1
370
     0
100
AcDbVertex
100
AcDb2dVertex
 10
598.4707059409724
 20
294.2963596496412
 30
0.0
  0
VERTEX
  5
CA
330
C1
100
AcDbEntity
  8
_U+56FE_U+5C42 1
370
     0
100
AcDbVertex
100
AcDb2dVertex
 10
597.3590878362869
 20
294.2963596496412
 30
0.0
  0
VERTEX
  5
CB
330
C1
100
AcDbEntity
  8
_U+56FE_U+5C42 1
370
     0
100
AcDbVertex
100
AcDb2dVertex
 10
597.3590878362869
 20
292.8707859416629
 30
0.0
  0
VERTEX
  5
CC
330
C1
100
AcDbEntity
  8
_U+56FE_U+5C42 1
370
     0
100
AcDbVertex
100
AcDb2dVertex
 10
596.8668220493814
 20
292.8707859416629
 30
0.0
  0
SEQEND
  5
CD
330
C1
100
AcDbEntity
  8
_U+56FE_U+5C42 1
370
     0
  0
HATCH
  5
CE
330
BD
100
AcDbEntity
  8
_U+56FE_U+5C42 1
 62
    18
420
   262144
100
AcDbHatch
 10
0.0
 20
0.0
 30
0.0
210
0.0
220
0.0
230
1.0
  2
SOLID
 70
     1
 71
     0
 91
        1
 92
        1
 93
       10
 72
     1
 10
596.8668220493814
 20
292.8707859416629
 11
596.8668220493814
 21
296.1166796841089
 72
     1
 10
596.8668220493814
 20
296.1166796841089
 11
598.5556464284407
 21
296.1166796841089
 72
     1
 10
598.5556464284407
 20
296.1166796841089
 11
598.5556464284407
 21
295.70507494026
 72
     1
 10
598.5556464284407
 20
295.70507494026
 11
597.3590878362869
 21
295.70507494026
 72
     1
 10
597.3590878362869
 20
295.70507494026
 11
597.3590878362869
 21
294.703814629217
 72
     1
 10
597.3590878362869
 20
294.703814629217
 11
598.4707059409724
 21
294.703814629217
 72
     1
 10
598.4707059409724
 20
294.703814629217
 11
598.4707059409724
 21
294.2963596496412
 72
     1
 10
598.4707059409724
 20
294.2963596496412
 11
597.3590878362869
 21
294.2963596496412
 72
     1
 10
597.3590878362869
 20
294.2963596496412
 11
597.3590878362869
 21
292.8707859416629
 72
     1
 10
597.3590878362869
 20
292.8707859416629
 11
596.8668220493814
 21
292.8707859416629
 97
        0
 75
     2
 76
     1
 98
        0
  0
POLYLINE
  5
CF
330
BD
100
AcDbEntity
  8
_U+56FE_U+5C42 1
370
     0
100
AcDb2dPolyline
 66
     1
 10
0.0
 20
0.0
 30
0.0
  0
VERTEX
  5
D0
330
CF
100
AcDbEntity
  8
_U+56FE_U+5C42 1
370
     0
100
AcDbVertex
100
AcDb2dVertex
 10
601.4615188607503
 20
292.8707859416629
 30
0.0
  0
VERTEX
  5
D1
330
CF
100
AcDbEntity
  8
_U+56FE_U+5C42 1
370
     0
100
AcDbVertex
100
AcDb2dVertex
 10
600.9439654478014
 20
292.8707859416629
 30
0.0
  0
VERTEX
  5
D2
330
CF
100
AcDbEntity
  8
_U+56FE_U+5C42 1
370
     0
100
AcDbVertex
100
AcDb2dVertex
 10
600.651147706274
 20
293.8254910847672
 30
0.0
  0
VERTEX
  5
D3
330
CF
100
AcDbEntity
  8
_U+56FE_U+5C42 1
370
     0
100
AcDbVertex
100
AcDb2dVertex
 10
599.6583166039093
 20
293.8254910847672
 30
0.0
  0
VERTEX
  5
D4
330
CF
100
AcDbEntity
  8
_U+56FE_U+5C42 1
370
     0
100
AcDbVertex
100
AcDb2dVertex
 10
599.3782075154708
 20
292.8707859416629
 30
0.0
  0
VERTEX
  5
D5
330
CF
100
AcDbEntity
  8
_U+56FE_U+5C42 1
370
     0
100
AcDbVertex
100
AcDb2dVertex
 10
598.8733627556069
 20
292.8707859416629
 30
0.0
  0
VERTEX
  5
D6
330
CF
100
AcDbEntity
  8
_U+56FE_U+5C42 1
370
     0
100
AcDbVertex
100
AcDb2dVertex
 10
599.8661938579716
 20
296.1166796841089
 30
0.0
  0
VERTEX
  5
D7
330
CF
100
AcDbEntity
  8
_U+56FE_U+5C42 1
370
     0
100
AcDbVertex
100
AcDb2dVertex
 10
600.4686877583857
 20
296.1166796841089
 30
0.0
  0
VERTEX
  5
D8
330
CF
100
AcDbEntity
  8
_U+56FE_U+5C42 1
370
     0
100
AcDbVertex
100
AcDb2dVertex
 10
601.4615188607503
 20
292.8707859416629
 30
0.0
  0
SEQEND
  5
D9
330
CF
100
AcDbEntity
  8
_U+56FE_U+5C42 1
370
     0
  0
SPLINE
  5
DA
330
BD
100
AcDbEntity
  8
_U+56FE_U+5C42 1
370
     0
100
AcDbSpline
210
0.0
220
0.0
230
1.0
 70
    11
 71
     3
 72
    23
 73
    19
 74
     0
 42
0.0000000001
 43
0.0000000001
 12
1.0
 22
0.0
 32
0.0
 13
1.0
 23
0.0
 33
0.0
 40
0.0
 40
0.0
 40
0.0
 40
0.0
 40
1.0
 40
1.0
 40
1.0
 40
2.0
 40
2.0
 40
2.0
 40
3.0
 40
3.0
 40
3.0
 40
4.0
 40
4.0
 40
4.0
 40
5.0
 40
5.0
 40
5.0
 40
6.0
 40
6.0
 40
6.0
 40
6.0
 10
600.5704866632135
 20
294.2031196336287
 30
0.0
 10
600.5704866632135
 20
294.2031196336287
 30
0.0
 10
600.3159245610794
 20
295.0516167473642
 30
0.0
 10
600.3159245610794
 20
295.0516167473642
 30
0.0
 10
600.2565310599156
 20
295.2637734458318
 30
0.0
 10
600.2014170031666
 20
295.4929182417924
 30
0.0
 10
600.1547321550916
 20
295.6923662871737
 30
0.0
 10
600.1547321550916
 20
295.6923662871737
 30
0.0
 10
600.1463029464138
 20
295.6923662871737
 30
0.0
 10
600.1463029464138
 20
295.6923662871737
 30
0.0
 10
600.0996180983389
 20
295.4929182417924
 30
0.0
 10
600.0486538058565
 20
295.2553442371521
 30
0.0
 10
599.9935397491076
 20
295.0558961917708
 30
0.0
 10
599.9935397491076
 20
295.0558961917708
 30
0.0
 10
599.7346982025624
 20
294.2031196336287
 30
0.0
 10
599.7346982025624
 20
294.2031196336287
 30
0.0
 10
599.7346982025624
 20
294.2031196336287
 30
0.0
 10
600.5704866632135
 20
294.2031196336287
 30
0.0
 10
600.5704866632135
 20
294.2031196336287
 30
0.0
  0
HATCH
  5
DB
330
BD
100
AcDbEntity
  8
_U+56FE_U+5C42 1
 62
    18
420
   262144
100
AcDbHatch
 10
0.0
 20
0.0
 30
0.0
210
0.0
220
0.0
230
1.0
  2
SOLID
 70
     1
 71
     0
 91
        2
 92
        1
 93
        8
 72
     1
 10
601.4615188607503
 20
292.8707859416629
 11
600.9439654478014
 21
292.8707859416629
 72
     1
 10
600.9439654478014
 20
292.8707859416629
 11
600.651147706274
 21
293.8254910847672
 72
     1
 10
600.651147706274
 20
293.8254910847672
 11
599.6583166039093
 21
293.8254910847672
 72
     1
 10
599.6583166039093
 20
293.8254910847672
 11
599.3782075154708
 21
292.8707859416629
 72
     1
 10
599.3782075154708
 20
292.8707859416629
 11
598.8733627556069
 21
292.8707859416629
 72
     1
 10
598.8733627556069
 20
292.8707859416629
 11
599.8661938579716
 21
296.1166796841089
 72
     1
 10
599.8661938579716
 20
296.1166796841089
 11
600.4686877583857
 21
296.1166796841089
 72
     1
 10
600.4686877583857
 20
296.1166796841089
 11
601.4615188607503
 21
292.8707859416629
 97
        0
 92
        1
 93
        1
 72
     4
 94
        3
 73
     0
 74
     1
 95
       23
 96
       19
 40
0.0
 40
0.0
 40
0.0
 40
0.0
 40
1.0
 40
1.0
 40
1.0
 40
2.0
 40
2.0
 40
2.0
 40
3.0
 40
3.0
 40
3.0
 40
4.0
 40
4.0
 40
4.0
 40
5.0
 40
5.0
 40
5.0
 40
6.0
 40
6.0
 40
6.0
 40
6.0
 10
600.5704866632135
 20
294.2031196336287
 10
600.5704866632135
 20
294.2031196336287
 10
600.3159245610794
 20
295.0516167473642
 10
600.3159245610794
 20
295.0516167473642
 10
600.2565310599156
 20
295.2637734458318
 10
600.2014170031666
 20
295.4929182417924
 10
600.1547321550916
 20
295.6923662871737
 10
600.1547321550916
 20
295.6923662871737
 10
600.1463029464138
 20
295.6923662871737
 10
600.1463029464138
 20
295.6923662871737
 10
600.0996180983389
 20
295.4929182417924
 10
600.0486538058565
 20
295.2553442371521
 10
599.9935397491076
 20
295.0558961917708
 10
599.9935397491076
 20
295.0558961917708
 10
599.7346982025624
 20
294.2031196336287
 10
599.7346982025624
 20
294.2031196336287
 10
599.7346982025624
 20
294.2031196336287
 10
600.5704866632135
 20
294.2031196336287
 10
600.5704866632135
 20
294.2031196336287
 97
        0
 97
        0
 75
     2
 76
     1
 98
        0
  0
SPLINE
  5
DC
330
BD
100
AcDbEntity
  8
_U+56FE_U+5C42 1
370
     0
100
AcDbSpline
210
0.0
220
0.0
230
1.0
 70
    11
 71
     3
 72
    47
 73
    43
 74
     0
 42
0.0000000001
 43
0.0000000001
 12
1.0
 22
0.0
 32
0.0
 13
1.0
 23
0.0
 33
0.0
 40
0.0
 40
0.0
 40
0.0
 40
0.0
 40
1.0
 40
1.0
 40
1.0
 40
2.0
 40
2.0
 40
2.0
 40
3.0
 40
3.0
 40
3.0
 40
4.0
 40
4.0
 40
4.0
 40
5.0
 40
5.0
 40
5.0
 40
6.0
 40
6.0
 40
6.0
 40
7.0
 40
7.0
 40
7.0
 40
8.0
 40
8.0
 40
8.0
 40
9.0
 40
9.0
 40
9.0
 40
10.0
 40
10.0
 40
10.0
 40
11.0
 40
11.0
 40
11.0
 40
12.0
 40
12.0
 40
12.0
 40
13.0
 40
13.0
 40
13.0
 40
14.0
 40
14.0
 40
14.0
 40
14.0
 10
603.4298039275824
 20
295.6117052441126
 30
0.0
 10
603.3237255783505
 20
295.671098745274
 30
0.0
 10
603.1199980885619
 20
295.7560392327405
 30
0.0
 10
602.8527273333428
 20
295.7560392327405
 30
0.0
 10
602.4666695757991
 20
295.7560392327405
 30
0.0
 10
602.3053474896814
 20
295.5311738811865
 30
0.0
 10
602.3053474896814
 20
295.3231669469919
 30
0.0
 10
602.3053474896814
 20
295.0474669830912
 30
0.0
 10
602.4878074375696
 20
294.9116918832767
 30
0.0
 10
602.899412181414
 20
294.7335113797964
 30
0.0
 10
603.421245038771
 20
294.5043665838357
 30
0.0
 10
603.6716573766307
 20
294.2201077311204
 30
0.0
 10
603.6716573766307
 20
293.7745267922868
 30
0.0
 10
603.6716573766307
 20
293.2314263930301
 30
0.0
 10
603.2686115215945
 20
292.8241010935905
 30
0.0
 10
602.5387717300481
 20
292.8241010935905
 30
0.0
 10
602.2332453354318
 20
292.8241010935905
 30
0.0
 10
601.9108605234599
 20
292.9131913453299
 30
0.0
 10
601.7538178817425
 20
293.0192696945638
 30
0.0
 10
601.7538178817425
 20
293.0192696945638
 30
0.0
 10
601.8641756753849
 20
293.4308744384114
 30
0.0
 10
601.8641756753849
 20
293.4308744384114
 30
0.0
 10
602.0380767344546
 20
293.3247960891788
 30
0.0
 10
602.3011977254039
 20
293.2399852818447
 30
0.0
 10
602.5684684806268
 20
293.2399852818447
 30
0.0
 10
602.9545262381699
 20
293.2399852818447
 30
0.0
 10
603.1709623810442
 20
293.439303647091
 30
0.0
 10
603.1709623810442
 20
293.7321213886198
 30
0.0
 10
603.1709623810442
 20
294.0079510326541
 30
0.0
 10
603.0054905306491
 20
294.177572647321
 30
0.0
 10
602.6194327731054
 20
294.3388947334419
 30
0.0
 10
602.135725875012
 20
294.5340633344152
 30
0.0
 10
601.8089319384985
 20
294.8267513958102
 30
0.0
 10
601.8089319384985
 20
295.2680528902385
 30
0.0
 10
601.8089319384985
 20
295.7814565389145
 30
0.0
 10
602.2205366823429
 20
296.1675142964544
 30
0.0
 10
602.8654359864279
 20
296.1675142964544
 30
0.0
 10
603.1752418254483
 20
296.1675142964544
 30
0.0
 10
603.408536385682
 20
296.0912623779349
 30
0.0
 10
603.5485909299025
 20
296.0190305435548
 30
0.0
 10
603.5485909299025
 20
296.0190305435548
 30
0.0
 10
603.4298039275824
 20
295.6117052441126
 30
0.0
 10
603.4298039275824
 20
295.6117052441126
 30
0.0
  0
HATCH
  5
DD
330
BD
100
AcDbEntity
  8
_U+56FE_U+5C42 1
 62
    18
420
   262144
100
AcDbHatch
 10
0.0
 20
0.0
 30
0.0
210
0.0
220
0.0
230
1.0
  2
SOLID
 70
     1
 71
     0
 91
        1
 92
        1
 93
        1
 72
     4
 94
        3
 73
     0
 74
     1
 95
       47
 96
       43
 40
0.0
 40
0.0
 40
0.0
 40
0.0
 40
1.0
 40
1.0
 40
1.0
 40
2.0
 40
2.0
 40
2.0
 40
3.0
 40
3.0
 40
3.0
 40
4.0
 40
4.0
 40
4.0
 40
5.0
 40
5.0
 40
5.0
 40
6.0
 40
6.0
 40
6.0
 40
7.0
 40
7.0
 40
7.0
 40
8.0
 40
8.0
 40
8.0
 40
9.0
 40
9.0
 40
9.0
 40
10.0
 40
10.0
 40
10.0
 40
11.0
 40
11.0
 40
11.0
 40
12.0
 40
12.0
 40
12.0
 40
13.0
 40
13.0
 40
13.0
 40
14.0
 40
14.0
 40
14.0
 40
14.0
 10
603.4298039275824
 20
295.6117052441126
 10
603.3237255783505
 20
295.671098745274
 10
603.1199980885619
 20
295.7560392327405
 10
602.8527273333428
 20
295.7560392327405
 10
602.4666695757991
 20
295.7560392327405
 10
602.3053474896814
 20
295.5311738811865
 10
602.3053474896814
 20
295.3231669469919
 10
602.3053474896814
 20
295.0474669830912
 10
602.4878074375696
 20
294.9116918832767
 10
602.899412181414
 20
294.7335113797964
 10
603.421245038771
 20
294.5043665838357
 10
603.6716573766307
 20
294.2201077311204
 10
603.6716573766307
 20
293.7745267922868
 10
603.6716573766307
 20
293.2314263930301
 10
603.2686115215945
 20
292.8241010935905
 10
602.5387717300481
 20
292.8241010935905
 10
602.2332453354318
 20
292.8241010935905
 10
601.9108605234599
 20
292.9131913453299
 10
601.7538178817425
 20
293.0192696945638
 10
601.7538178817425
 20
293.0192696945638
 10
601.8641756753849
 20
293.4308744384114
 10
601.8641756753849
 20
293.4308744384114
 10
602.0380767344546
 20
293.3247960891788
 10
602.3011977254039
 20
293.2399852818447
 10
602.5684684806268
 20
293.2399852818447
 10
602.9545262381699
 20
293.2399852818447
 10
603.1709623810442
 20
293.439303647091
 10
603.1709623810442
 20
293.7321213886198
 10
603.1709623810442
 20
294.0079510326541
 10
603.0054905306491
 20
294.177572647321
 10
602.6194327731054
 20
294.3388947334419
 10
602.135725875012
 20
294.5340633344152
 10
601.8089319384985
 20
294.8267513958102
 10
601.8089319384985
 20
295.2680528902385
 10
601.8089319384985
 20
295.7814565389145
 10
602.2205366823429
 20
296.1675142964544
 10
602.8654359864279
 20
296.1675142964544
 10
603.1752418254483
 20
296.1675142964544
 10
603.408536385682
 20
296.0912623779349
 10
603.5485909299025
 20
296.0190305435548
 10
603.5485909299025
 20
296.0190305435548
 10
603.4298039275824
 20
295.6117052441126
 10
603.4298039275824
 20
295.6117052441126
 97
        0
 97
        0
 75
     2
 76
     1
 98
        0
  0
POLYLINE
  5
DE
330
BD
100
AcDbEntity
  8
_U+56FE_U+5C42 1
370
     0
100
AcDb2dPolyline
 66
     1
 10
0.0
 20
0.0
 30
0.0
  0
VERTEX
  5
DF
330
DE
100
AcDbEntity
  8
_U+56FE_U+5C42 1
370
     0
100
AcDbVertex
100
AcDb2dVertex
 10
606.1277991058298
 20
295.6966457315804
 30
0.0
  0
VERTEX
  5
E0
330
DE
100
AcDbEntity
  8
_U+56FE_U+5C42 1
370
     0
100
AcDbVertex
100
AcDb2dVertex
 10
605.2494755613851
 20
295.6966457315804
 30
0.0
  0
VERTEX
  5
E1
330
DE
100
AcDbEntity
  8
_U+56FE_U+5C42 1
370
     0
100
AcDbVertex
100
AcDb2dVertex
 10
605.2494755613851
 20
292.8707859416629
 30
0.0
  0
VERTEX
  5
E2
330
DE
100
AcDbEntity
  8
_U+56FE_U+5C42 1
370
     0
100
AcDbVertex
100
AcDb2dVertex
 10
604.7572097744726
 20
292.8707859416629
 30
0.0
  0
VERTEX
  5
E3
330
DE
100
AcDbEntity
  8
_U+56FE_U+5C42 1
370
     0
100
AcDbVertex
100
AcDb2dVertex
 10
604.7572097744726
 20
295.6966457315804
 30
0.0
  0
VERTEX
  5
E4
330
DE
100
AcDbEntity
  8
_U+56FE_U+5C42 1
370
     0
100
AcDbVertex
100
AcDb2dVertex
 10
603.8831656744281
 20
295.6966457315804
 30
0.0
  0
VERTEX
  5
E5
330
DE
100
AcDbEntity
  8
_U+56FE_U+5C42 1
370
     0
100
AcDbVertex
100
AcDb2dVertex
 10
603.8831656744281
 20
296.1166796841089
 30
0.0
  0
VERTEX
  5
E6
330
DE
100
AcDbEntity
  8
_U+56FE_U+5C42 1
370
     0
100
AcDbVertex
100
AcDb2dVertex
 10
606.1277991058298
 20
296.1166796841089
 30
0.0
  0
VERTEX
  5
E7
330
DE
100
AcDbEntity
  8
_U+56FE_U+5C42 1
370
     0
100
AcDbVertex
100
AcDb2dVertex
 10
606.1277991058298
 20
295.6966457315804
 30
0.0
  0
SEQEND
  5
E8
330
DE
100
AcDbEntity
  8
_U+56FE_U+5C42 1
370
     0
  0
HATCH
  5
E9
330
BD
100
AcDbEntity
  8
_U+56FE_U+5C42 1
 62
    18
420
   262144
100
AcDbHatch
 10
0.0
 20
0.0
 30
0.0
210
0.0
220
0.0
230
1.0
  2
SOLID
 70
     1
 71
     0
 91
        1
 92
        1
 93
        8
 72
     1
 10
606.1277991058298
 20
295.6966457315804
 11
605.2494755613851
 21
295.6966457315804
 72
     1
 10
605.2494755613851
 20
295.6966457315804
 11
605.2494755613851
 21
292.8707859416629
 72
     1
 10
605.2494755613851
 20
292.8707859416629
 11
604.7572097744726
 21
292.8707859416629
 72
     1
 10
604.7572097744726
 20
292.8707859416629
 11
604.7572097744726
 21
295.6966457315804
 72
     1
 10
604.7572097744726
 20
295.6966457315804
 11
603.8831656744281
 21
295.6966457315804
 72
     1
 10
603.8831656744281
 20
295.6966457315804
 11
603.8831656744281
 21
296.1166796841089
 72
     1
 10
603.8831656744281
 20
296.1166796841089
 11
606.1277991058298
 21
296.1166796841089
 72
     1
 10
606.1277991058298
 20
296.1166796841089
 11
606.1277991058298
 21
295.6966457315804
 97
        0
 75
     2
 76
     1
 98
        0
  0
POLYLINE
  5
EA
330
BD
100
AcDbEntity
  8
_U+56FE_U+5C42 1
370
     0
100
AcDb2dPolyline
 66
     1
 10
0.0
 20
0.0
 30
0.0
  0
VERTEX
  5
EB
330
EA
100
AcDbEntity
  8
_U+56FE_U+5C42 1
370
     0
100
AcDbVertex
100
AcDb2dVertex
 10
608.2614263429266
 20
292.8707859416629
 30
0.0
  0
VERTEX
  5
EC
330
EA
100
AcDbEntity
  8
_U+56FE_U+5C42 1
370
     0
100
AcDbVertex
100
AcDb2dVertex
 10
606.492200281071
 20
292.8707859416629
 30
0.0
  0
VERTEX
  5
ED
330
EA
100
AcDbEntity
  8
_U+56FE_U+5C42 1
370
     0
100
AcDbVertex
100
AcDb2dVertex
 10
606.492200281071
 20
296.1166796841089
 30
0.0
  0
VERTEX
  5
EE
330
EA
100
AcDbEntity
  8
_U+56FE_U+5C42 1
370
     0
100
AcDbVertex
100
AcDb2dVertex
 10
608.1893241886776
 20
296.1166796841089
 30
0.0
  0
VERTEX
  5
EF
330
EA
100
AcDbEntity
  8
_U+56FE_U+5C42 1
370
     0
100
AcDbVertex
100
AcDb2dVertex
 10
608.1893241886776
 20
295.70507494026
 30
0.0
  0
VERTEX
  5
F0
330
EA
100
AcDbEntity
  8
_U+56FE_U+5C42 1
370
     0
100
AcDbVertex
100
AcDb2dVertex
 10
606.9843363878491
 20
295.70507494026
 30
0.0
  0
VERTEX
  5
F1
330
EA
100
AcDbEntity
  8
_U+56FE_U+5C42 1
370
     0
100
AcDbVertex
100
AcDb2dVertex
 10
606.9843363878491
 20
294.7673578946501
 30
0.0
  0
VERTEX
  5
F2
330
EA
100
AcDbEntity
  8
_U+56FE_U+5C42 1
370
     0
100
AcDbVertex
100
AcDb2dVertex
 10
608.121501478839
 20
294.7673578946501
 30
0.0
  0
VERTEX
  5
F3
330
EA
100
AcDbEntity
  8
_U+56FE_U+5C42 1
370
     0
100
AcDbVertex
100
AcDb2dVertex
 10
608.121501478839
 20
294.3600325952092
 30
0.0
  0
VERTEX
  5
F4
330
EA
100
AcDbEntity
  8
_U+56FE_U+5C42 1
370
     0
100
AcDbVertex
100
AcDb2dVertex
 10
606.9843363878491
 20
294.3600325952092
 30
0.0
  0
VERTEX
  5
F5
330
EA
100
AcDbEntity
  8
_U+56FE_U+5C42 1
370
     0
100
AcDbVertex
100
AcDb2dVertex
 10
606.9843363878491
 20
293.2823906855118
 30
0.0
  0
VERTEX
  5
F6
330
EA
100
AcDbEntity
  8
_U+56FE_U+5C42 1
370
     0
100
AcDbVertex
100
AcDb2dVertex
 10
608.2614263429266
 20
293.2823906855118
 30
0.0
  0
VERTEX
  5
F7
330
EA
100
AcDbEntity
  8
_U+56FE_U+5C42 1
370
     0
100
AcDbVertex
100
AcDb2dVertex
 10
608.2614263429266
 20
292.8707859416629
 30
0.0
  0
SEQEND
  5
F8
330
EA
100
AcDbEntity
  8
_U+56FE_U+5C42 1
370
     0
  0
HATCH
  5
F9
330
BD
100
AcDbEntity
  8
_U+56FE_U+5C42 1
 62
    18
420
   262144
100
AcDbHatch
 10
0.0
 20
0.0
 30
0.0
210
0.0
220
0.0
230
1.0
  2
SOLID
 70
     1
 71
     0
 91
        1
 92
        1
 93
       12
 72
     1
 10
608.2614263429266
 20
292.8707859416629
 11
606.492200281071
 21
292.8707859416629
 72
     1
 10
606.492200281071
 20
292.8707859416629
 11
606.492200281071
 21
296.1166796841089
 72
     1
 10
606.492200281071
 20
296.1166796841089
 11
608.1893241886776
 21
296.1166796841089
 72
     1
 10
608.1893241886776
 20
296.1166796841089
 11
608.1893241886776
 21
295.70507494026
 72
     1
 10
608.1893241886776
 20
295.70507494026
 11
606.9843363878491
 21
295.70507494026
 72
     1
 10
606.9843363878491
 20
295.70507494026
 11
606.9843363878491
 21
294.7673578946501
 72
     1
 10
606.9843363878491
 20
294.7673578946501
 11
608.121501478839
 21
294.7673578946501
 72
     1
 10
608.121501478839
 20
294.7673578946501
 11
608.121501478839
 21
294.3600325952092
 72
     1
 10
608.121501478839
 20
294.3600325952092
 11
606.9843363878491
 21
294.3600325952092
 72
     1
 10
606.9843363878491
 20
294.3600325952092
 11
606.9843363878491
 21
293.2823906855118
 72
     1
 10
606.9843363878491
 20
293.2823906855118
 11
608.2614263429266
 21
293.2823906855118
 72
     1
 10
608.2614263429266
 20
293.2823906855118
 11
608.2614263429266
 21
292.8707859416629
 97
        0
 75
     2
 76
     1
 98
        0
  0
SPLINE
  5
FA
330
BD
100
AcDbEntity
  8
_U+56FE_U+5C42 1
370
     0
100
AcDbSpline
210
0.0
220
0.0
230
1.0
 70
    11
 71
     3
 72
    53
 73
    49
 74
     0
 42
0.0000000001
 43
0.0000000001
 12
1.0
 22
0.0
 32
0.0
 13
1.0
 23
0.0
 33
0.0
 40
0.0
 40
0.0
 40
0.0
 40
0.0
 40
1.0
 40
1.0
 40
1.0
 40
2.0
 40
2.0
 40
2.0
 40
3.0
 40
3.0
 40
3.0
 40
4.0
 40
4.0
 40
4.0
 40
5.0
 40
5.0
 40
5.0
 40
6.0
 40
6.0
 40
6.0
 40
7.0
 40
7.0
 40
7.0
 40
8.0
 40
8.0
 40
8.0
 40
9.0
 40
9.0
 40
9.0
 40
10.0
 40
10.0
 40
10.0
 40
11.0
 40
11.0
 40
11.0
 40
12.0
 40
12.0
 40
12.0
 40
13.0
 40
13.0
 40
13.0
 40
14.0
 40
14.0
 40
14.0
 40
15.0
 40
15.0
 40
15.0
 40
16.0
 40
16.0
 40
16.0
 40
16.0
 10
611.0867674123061
 20
292.8707859416629
 30
0.0
 10
611.0867674123061
 20
292.8707859416629
 30
0.0
 10
610.590351861127
 20
292.8707859416629
 30
0.0
 10
610.590351861127
 20
292.8707859416629
 30
0.0
 10
610.590351861127
 20
292.8707859416629
 30
0.0
 10
609.7375753029829
 20
294.3897293457886
 30
0.0
 10
609.7375753029829
 20
294.3897293457886
 30
0.0
 10
609.5424067020128
 20
294.7419405884761
 30
0.0
 10
609.3472381010357
 20
295.1238485817443
 30
0.0
 10
609.1987543481368
 20
295.4886387973858
 30
0.0
 10
609.1987543481368
 20
295.4886387973858
 30
0.0
 10
609.1817662506438
 20
295.4844890331128
 30
0.0
 10
609.1817662506438
 20
295.4844890331128
 30
0.0
 10
609.2071835568146
 20
295.0728842892639
 30
0.0
 10
609.2156127654962
 20
294.6528503367366
 30
0.0
 10
609.2156127654962
 20
294.0843326313072
 30
0.0
 10
609.2156127654962
 20
294.0843326313072
 30
0.0
 10
609.2156127654962
 20
292.8707859416629
 30
0.0
 10
609.2156127654962
 20
292.8707859416629
 30
0.0
 10
609.2156127654962
 20
292.8707859416629
 30
0.0
 10
608.7616026179809
 20
292.8707859416629
 30
0.0
 10
608.7616026179809
 20
292.8707859416629
 30
0.0
 10
608.7616026179809
 20
292.8707859416629
 30
0.0
 10
608.7616026179809
 20
296.1166796841089
 30
0.0
 10
608.7616026179809
 20
296.1166796841089
 30
0.0
 10
608.7616026179809
 20
296.1166796841089
 30
0.0
 10
609.2962738085566
 20
296.1166796841089
 30
0.0
 10
609.2962738085566
 20
296.1166796841089
 30
0.0
 10
609.2962738085566
 20
296.1166796841089
 30
0.0
 10
610.1449006024271
 20
294.6145946973426
 30
0.0
 10
610.1449006024271
 20
294.6145946973426
 30
0.0
 10
610.3484984120781
 20
294.2582336903808
 30
0.0
 10
610.530958359967
 20
293.8848845859272
 30
0.0
 10
610.6710129041843
 20
293.5412322320518
 30
0.0
 10
610.6710129041843
 20
293.5412322320518
 30
0.0
 10
610.6837215572732
 20
293.5453819963249
 30
0.0
 10
610.6837215572732
 20
293.5453819963249
 30
0.0
 10
610.6455955980135
 20
293.9866834907544
 30
0.0
 10
610.6327572647941
 20
294.402437998875
 30
0.0
 10
610.6327572647941
 20
294.9201210919576
 30
0.0
 10
610.6327572647941
 20
294.9201210919576
 30
0.0
 10
610.6327572647941
 20
296.1166796841089
 30
0.0
 10
610.6327572647941
 20
296.1166796841089
 30
0.0
 10
610.6327572647941
 20
296.1166796841089
 30
0.0
 10
611.0867674123061
 20
296.1166796841089
 30
0.0
 10
611.0867674123061
 20
296.1166796841089
 30
0.0
 10
611.0867674123061
 20
296.1166796841089
 30
0.0
 10
611.0867674123061
 20
292.8707859416629
 30
0.0
 10
611.0867674123061
 20
292.8707859416629
 30
0.0
  0
HATCH
  5
FB
330
BD
100
AcDbEntity
  8
_U+56FE_U+5C42 1
 62
    18
420
   262144
100
AcDbHatch
 10
0.0
 20
0.0
 30
0.0
210
0.0
220
0.0
230
1.0
  2
SOLID
 70
     1
 71
     0
 91
        1
 92
        1
 93
        1
 72
     4
 94
        3
 73
     0
 74
     1
 95
       53
 96
       49
 40
0.0
 40
0.0
 40
0.0
 40
0.0
 40
1.0
 40
1.0
 40
1.0
 40
2.0
 40
2.0
 40
2.0
 40
3.0
 40
3.0
 40
3.0
 40
4.0
 40
4.0
 40
4.0
 40
5.0
 40
5.0
 40
5.0
 40
6.0
 40
6.0
 40
6.0
 40
7.0
 40
7.0
 40
7.0
 40
8.0
 40
8.0
 40
8.0
 40
9.0
 40
9.0
 40
9.0
 40
10.0
 40
10.0
 40
10.0
 40
11.0
 40
11.0
 40
11.0
 40
12.0
 40
12.0
 40
12.0
 40
13.0
 40
13.0
 40
13.0
 40
14.0
 40
14.0
 40
14.0
 40
15.0
 40
15.0
 40
15.0
 40
16.0
 40
16.0
 40
16.0
 40
16.0
 10
611.0867674123061
 20
292.8707859416629
 10
611.0867674123061
 20
292.8707859416629
 10
610.590351861127
 20
292.8707859416629
 10
610.590351861127
 20
292.8707859416629
 10
610.590351861127
 20
292.8707859416629
 10
609.7375753029829
 20
294.3897293457886
 10
609.7375753029829
 20
294.3897293457886
 10
609.5424067020128
 20
294.7419405884761
 10
609.3472381010357
 20
295.1238485817443
 10
609.1987543481368
 20
295.4886387973858
 10
609.1987543481368
 20
295.4886387973858
 10
609.1817662506438
 20
295.4844890331128
 10
609.1817662506438
 20
295.4844890331128
 10
609.2071835568146
 20
295.0728842892639
 10
609.2156127654962
 20
294.6528503367366
 10
609.2156127654962
 20
294.0843326313072
 10
609.2156127654962
 20
294.0843326313072
 10
609.2156127654962
 20
292.8707859416629
 10
609.2156127654962
 20
292.8707859416629
 10
609.2156127654962
 20
292.8707859416629
 10
608.7616026179809
 20
292.8707859416629
 10
608.7616026179809
 20
292.8707859416629
 10
608.7616026179809
 20
292.8707859416629
 10
608.7616026179809
 20
296.1166796841089
 10
608.7616026179809
 20
296.1166796841089
 10
608.7616026179809
 20
296.1166796841089
 10
609.2962738085566
 20
296.1166796841089
 10
609.2962738085566
 20
296.1166796841089
 10
609.2962738085566
 20
296.1166796841089
 10
610.1449006024271
 20
294.6145946973426
 10
610.1449006024271
 20
294.6145946973426
 10
610.3484984120781
 20
294.2582336903808
 10
610.530958359967
 20
293.8848845859272
 10
610.6710129041843
 20
293.5412322320518
 10
610.6710129041843
 20
293.5412322320518
 10
610.6837215572732
 20
293.5453819963249
 10
610.6837215572732
 20
293.5453819963249
 10
610.6455955980135
 20
293.9866834907544
 10
610.6327572647941
 20
294.402437998875
 10
610.6327572647941
 20
294.9201210919576
 10
610.6327572647941
 20
294.9201210919576
 10
610.6327572647941
 20
296.1166796841089
 10
610.6327572647941
 20
296.1166796841089
 10
610.6327572647941
 20
296.1166796841089
 10
611.0867674123061
 20
296.1166796841089
 10
611.0867674123061
 20
296.1166796841089
 10
611.0867674123061
 20
296.1166796841089
 10
611.0867674123061
 20
292.8707859416629
 10
611.0867674123061
 20
292.8707859416629
 97
        0
 97
        0
 75
     2
 76
     1
 98
        0
  0
POLYLINE
  5
FC
330
BD
100
AcDbEntity
  8
_U+56FE_U+5C42 1
370
     0
100
AcDb2dPolyline
 66
     1
 10
0.0
 20
0.0
 30
0.0
  0
VERTEX
  5
FD
330
FC
100
AcDbEntity
  8
_U+56FE_U+5C42 1
370
     0
100
AcDbVertex
100
AcDb2dVertex
 10
613.5343502526964
 20
292.8707859416629
 30
0.0
  0
VERTEX
  5
FE
330
FC
100
AcDbEntity
  8
_U+56FE_U+5C42 1
370
     0
100
AcDbVertex
100
AcDb2dVertex
 10
611.7649945107072
 20
292.8707859416629
 30
0.0
  0
VERTEX
  5
FF
330
FC
100
AcDbEntity
  8
_U+56FE_U+5C42 1
370
     0
100
AcDbVertex
100
AcDb2dVertex
 10
611.7649945107072
 20
296.1166796841089
 30
0.0
  0
VERTEX
  5
100
330
FC
100
AcDbEntity
  8
_U+56FE_U+5C42 1
370
     0
100
AcDbVertex
100
AcDb2dVertex
 10
613.4622480984513
 20
296.1166796841089
 30
0.0
  0
VERTEX
  5
101
330
FC
100
AcDbEntity
  8
_U+56FE_U+5C42 1
370
     0
100
AcDbVertex
100
AcDb2dVertex
 10
613.4622480984513
 20
295.70507494026
 30
0.0
  0
VERTEX
  5
102
330
FC
100
AcDbEntity
  8
_U+56FE_U+5C42 1
370
     0
100
AcDbVertex
100
AcDb2dVertex
 10
612.2572602976196
 20
295.70507494026
 30
0.0
  0
VERTEX
  5
103
330
FC
100
AcDbEntity
  8
_U+56FE_U+5C42 1
370
     0
100
AcDbVertex
100
AcDb2dVertex
 10
612.2572602976196
 20
294.7673578946501
 30
0.0
  0
VERTEX
  5
104
330
FC
100
AcDbEntity
  8
_U+56FE_U+5C42 1
370
     0
100
AcDbVertex
100
AcDb2dVertex
 10
613.3942957084791
 20
294.7673578946501
 30
0.0
  0
VERTEX
  5
105
330
FC
100
AcDbEntity
  8
_U+56FE_U+5C42 1
370
     0
100
AcDbVertex
100
AcDb2dVertex
 10
613.3942957084791
 20
294.3600325952092
 30
0.0
  0
VERTEX
  5
106
330
FC
100
AcDbEntity
  8
_U+56FE_U+5C42 1
370
     0
100
AcDbVertex
100
AcDb2dVertex
 10
612.2572602976196
 20
294.3600325952092
 30
0.0
  0
VERTEX
  5
107
330
FC
100
AcDbEntity
  8
_U+56FE_U+5C42 1
370
     0
100
AcDbVertex
100
AcDb2dVertex
 10
612.2572602976196
 20
293.2823906855118
 30
0.0
  0
VERTEX
  5
108
330
FC
100
AcDbEntity
  8
_U+56FE_U+5C42 1
370
     0
100
AcDbVertex
100
AcDb2dVertex
 10
613.5343502526964
 20
293.2823906855118
 30
0.0
  0
VERTEX
  5
109
330
FC
100
AcDbEntity
  8
_U+56FE_U+5C42 1
370
     0
100
AcDbVertex
100
AcDb2dVertex
 10
613.5343502526964
 20
292.8707859416629
 30
0.0
  0
SEQEND
  5
10A
330
FC
100
AcDbEntity
  8
_U+56FE_U+5C42 1
370
     0
  0
HATCH
  5
10B
330
BD
100
AcDbEntity
  8
_U+56FE_U+5C42 1
 62
    18
420
   262144
100
AcDbHatch
 10
0.0
 20
0.0
 30
0.0
210
0.0
220
0.0
230
1.0
  2
SOLID
 70
     1
 71
     0
 91
        1
 92
        1
 93
       12
 72
     1
 10
613.5343502526964
 20
292.8707859416629
 11
611.7649945107072
 21
292.8707859416629
 72
     1
 10
611.7649945107072
 20
292.8707859416629
 11
611.7649945107072
 21
296.1166796841089
 72
     1
 10
611.7649945107072
 20
296.1166796841089
 11
613.4622480984513
 21
296.1166796841089
 72
     1
 10
613.4622480984513
 20
296.1166796841089
 11
613.4622480984513
 21
295.70507494026
 72
     1
 10
613.4622480984513
 20
295.70507494026
 11
612.2572602976196
 21
295.70507494026
 72
     1
 10
612.2572602976196
 20
295.70507494026
 11
612.2572602976196
 21
294.7673578946501
 72
     1
 10
612.2572602976196
 20
294.7673578946501
 11
613.3942957084791
 21
294.7673578946501
 72
     1
 10
613.3942957084791
 20
294.7673578946501
 11
613.3942957084791
 21
294.3600325952092
 72
     1
 10
613.3942957084791
 20
294.3600325952092
 11
612.2572602976196
 21
294.3600325952092
 72
     1
 10
612.2572602976196
 20
294.3600325952092
 11
612.2572602976196
 21
293.2823906855118
 72
     1
 10
612.2572602976196
 20
293.2823906855118
 11
613.5343502526964
 21
293.2823906855118
 72
     1
 10
613.5343502526964
 20
293.2823906855118
 11
613.5343502526964
 21
292.8707859416629
 97
        0
 75
     2
 76
     1
 98
        0
  0
SPLINE
  5
10C
330
BD
100
AcDbEntity
  8
_U+56FE_U+5C42 1
370
     0
100
AcDbSpline
210
0.0
220
0.0
230
1.0
 70
    11
 71
     3
 72
    47
 73
    43
 74
     0
 42
0.0000000001
 43
0.0000000001
 12
1.0
 22
0.0
 32
0.0
 13
1.0
 23
0.0
 33
0.0
 40
0.0
 40
0.0
 40
0.0
 40
0.0
 40
1.0
 40
1.0
 40
1.0
 40
2.0
 40
2.0
 40
2.0
 40
3.0
 40
3.0
 40
3.0
 40
4.0
 40
4.0
 40
4.0
 40
5.0
 40
5.0
 40
5.0
 40
6.0
 40
6.0
 40
6.0
 40
7.0
 40
7.0
 40
7.0
 40
8.0
 40
8.0
 40
8.0
 40
9.0
 40
9.0
 40
9.0
 40
10.0
 40
10.0
 40
10.0
 40
11.0
 40
11.0
 40
11.0
 40
12.0
 40
12.0
 40
12.0
 40
13.0
 40
13.0
 40
13.0
 40
14.0
 40
14.0
 40
14.0
 40
14.0
 10
615.426383401009
 20
294.4152763320963
 30
0.0
 10
615.6681071699236
 20
294.3261860803555
 30
0.0
 10
615.8040119498711
 20
294.0970412843936
 30
0.0
 10
615.8802638683939
 20
293.7532592503858
 30
0.0
 10
615.9777833288136
 20
293.3290755335842
 30
0.0
 10
616.0584443718748
 20
292.9938523883911
 30
0.0
 10
616.1222469975726
 20
292.8707859416629
 30
0.0
 10
616.1222469975726
 20
292.8707859416629
 30
0.0
 10
615.6128634330372
 20
292.8707859416629
 30
0.0
 10
615.6128634330372
 20
292.8707859416629
 30
0.0
 10
615.5661785849622
 20
292.9641556378104
 30
0.0
 10
615.4899266664428
 20
293.2484144905245
 30
0.0
 10
615.4092656233823
 20
293.6473105812869
 30
0.0
 10
615.3203050517777
 20
294.0800531869006
 30
0.0
 10
615.1631327299299
 20
294.2455250372944
 30
0.0
 10
614.8194803760532
 20
294.2455250372944
 30
0.0
 10
614.8194803760532
 20
294.2455250372944
 30
0.0
 10
614.5225128702522
 20
294.2455250372944
 30
0.0
 10
614.5225128702522
 20
294.2455250372944
 30
0.0
 10
614.5225128702522
 20
294.2455250372944
 30
0.0
 10
614.5225128702522
 20
292.8707859416629
 30
0.0
 10
614.5225128702522
 20
292.8707859416629
 30
0.0
 10
614.5225128702522
 20
292.8707859416629
 30
0.0
 10
614.0346562078851
 20
292.8707859416629
 30
0.0
 10
614.0346562078851
 20
292.8707859416629
 30
0.0
 10
614.0346562078851
 20
292.8707859416629
 30
0.0
 10
614.0346562078851
 20
296.0742742804406
 30
0.0
 10
614.0346562078851
 20
296.0742742804406
 30
0.0
 10
614.2426631420777
 20
296.1124002397009
 30
0.0
 10
614.5310717590642
 20
296.1420969902816
 30
0.0
 10
614.8238895005948
 20
296.1420969902816
 30
0.0
 10
615.248202897532
 20
296.1420969902816
 30
0.0
 10
615.5451704033292
 20
296.0657153916285
 30
0.0
 10
615.7487682129847
 20
295.8832554437403
 30
0.0
 10
615.9183898276503
 20
295.7347716908395
 30
0.0
 10
616.0076097595222
 20
295.5099063392855
 30
0.0
 10
616.0076097595222
 20
295.2469150284711
 30
0.0
 10
616.0076097595222
 20
294.8310308402169
 30
0.0
 10
615.7529179772583
 20
294.5467719875028
 30
0.0
 10
615.426383401009
 20
294.4237055407747
 30
0.0
 10
615.426383401009
 20
294.4237055407747
 30
0.0
 10
615.426383401009
 20
294.4152763320963
 30
0.0
 10
615.426383401009
 20
294.4152763320963
 30
0.0
  0
SPLINE
  5
10D
330
BD
100
AcDbEntity
  8
_U+56FE_U+5C42 1
370
     0
100
AcDbSpline
210
0.0
220
0.0
230
1.0
 70
    11
 71
     3
 72
    20
 73
    16
 74
     0
 42
0.0000000001
 43
0.0000000001
 12
1.0
 22
0.0
 32
0.0
 13
1.0
 23
0.0
 33
0.0
 40
0.0
 40
0.0
 40
0.0
 40
0.0
 40
1.0
 40
1.0
 40
1.0
 40
2.0
 40
2.0
 40
2.0
 40
3.0
 40
3.0
 40
3.0
 40
4.0
 40
4.0
 40
4.0
 40
5.0
 40
5.0
 40
5.0
 40
5.0
 10
614.8534565710431
 20
294.6145946973426
 30
0.0
 10
615.2609115506139
 20
294.6145946973426
 30
0.0
 10
615.5153439726174
 20
294.8480189377112
 30
0.0
 10
615.5153439726174
 20
295.1959507359907
 30
0.0
 10
615.5153439726174
 20
295.6159846885206
 30
0.0
 10
615.2183764668164
 20
295.7601889970135
 30
0.0
 10
614.8661652241282
 20
295.7601889970135
 30
0.0
 10
614.700693373733
 20
295.7601889970135
 30
0.0
 10
614.581906371416
 20
295.7474803439271
 30
0.0
 10
614.5225128702522
 20
295.7304922464341
 30
0.0
 10
614.5225128702522
 20
295.7304922464341
 30
0.0
 10
614.5225128702522
 20
294.6145946973426
 30
0.0
 10
614.5225128702522
 20
294.6145946973426
 30
0.0
 10
614.5225128702522
 20
294.6145946973426
 30
0.0
 10
614.8534565710431
 20
294.6145946973426
 30
0.0
 10
614.8534565710431
 20
294.6145946973426
 30
0.0
  0
HATCH
  5
10E
330
BD
100
AcDbEntity
  8
_U+56FE_U+5C42 1
 62
    18
420
   262144
100
AcDbHatch
 10
0.0
 20
0.0
 30
0.0
210
0.0
220
0.0
230
1.0
  2
SOLID
 70
     1
 71
     0
 91
        2
 92
        1
 93
        1
 72
     4
 94
        3
 73
     0
 74
     1
 95
       47
 96
       43
 40
0.0
 40
0.0
 40
0.0
 40
0.0
 40
1.0
 40
1.0
 40
1.0
 40
2.0
 40
2.0
 40
2.0
 40
3.0
 40
3.0
 40
3.0
 40
4.0
 40
4.0
 40
4.0
 40
5.0
 40
5.0
 40
5.0
 40
6.0
 40
6.0
 40
6.0
 40
7.0
 40
7.0
 40
7.0
 40
8.0
 40
8.0
 40
8.0
 40
9.0
 40
9.0
 40
9.0
 40
10.0
 40
10.0
 40
10.0
 40
11.0
 40
11.0
 40
11.0
 40
12.0
 40
12.0
 40
12.0
 40
13.0
 40
13.0
 40
13.0
 40
14.0
 40
14.0
 40
14.0
 40
14.0
 10
615.426383401009
 20
294.4152763320963
 10
615.6681071699236
 20
294.3261860803555
 10
615.8040119498711
 20
294.0970412843936
 10
615.8802638683939
 20
293.7532592503858
 10
615.9777833288136
 20
293.3290755335842
 10
616.0584443718748
 20
292.9938523883911
 10
616.1222469975726
 20
292.8707859416629
 10
616.1222469975726
 20
292.8707859416629
 10
615.6128634330372
 20
292.8707859416629
 10
615.6128634330372
 20
292.8707859416629
 10
615.5661785849622
 20
292.9641556378104
 10
615.4899266664428
 20
293.2484144905245
 10
615.4092656233823
 20
293.6473105812869
 10
615.3203050517777
 20
294.0800531869006
 10
615.1631327299299
 20
294.2455250372944
 10
614.8194803760532
 20
294.2455250372944
 10
614.8194803760532
 20
294.2455250372944
 10
614.5225128702522
 20
294.2455250372944
 10
614.5225128702522
 20
294.2455250372944
 10
614.5225128702522
 20
294.2455250372944
 10
614.5225128702522
 20
292.8707859416629
 10
614.5225128702522
 20
292.8707859416629
 10
614.5225128702522
 20
292.8707859416629
 10
614.0346562078851
 20
292.8707859416629
 10
614.0346562078851
 20
292.8707859416629
 10
614.0346562078851
 20
292.8707859416629
 10
614.0346562078851
 20
296.0742742804406
 10
614.0346562078851
 20
296.0742742804406
 10
614.2426631420777
 20
296.1124002397009
 10
614.5310717590642
 20
296.1420969902816
 10
614.8238895005948
 20
296.1420969902816
 10
615.248202897532
 20
296.1420969902816
 10
615.5451704033292
 20
296.0657153916285
 10
615.7487682129847
 20
295.8832554437403
 10
615.9183898276503
 20
295.7347716908395
 10
616.0076097595222
 20
295.5099063392855
 10
616.0076097595222
 20
295.2469150284711
 10
616.0076097595222
 20
294.8310308402169
 10
615.7529179772583
 20
294.5467719875028
 10
615.426383401009
 20
294.4237055407747
 10
615.426383401009
 20
294.4237055407747
 10
615.426383401009
 20
294.4152763320963
 10
615.426383401009
 20
294.4152763320963
 97
        0
 97
        0
 92
        1
 93
        1
 72
     4
 94
        3
 73
     0
 74
     1
 95
       20
 96
       16
 40
0.0
 40
0.0
 40
0.0
 40
0.0
 40
1.0
 40
1.0
 40
1.0
 40
2.0
 40
2.0
 40
2.0
 40
3.0
 40
3.0
 40
3.0
 40
4.0
 40
4.0
 40
4.0
 40
5.0
 40
5.0
 40
5.0
 40
5.0
 10
614.8534565710431
 20
294.6145946973426
 10
615.2609115506139
 20
294.6145946973426
 10
615.5153439726174
 20
294.8480189377112
 10
615.5153439726174
 20
295.1959507359907
 10
615.5153439726174
 20
295.6159846885206
 10
615.2183764668164
 20
295.7601889970135
 10
614.8661652241282
 20
295.7601889970135
 10
614.700693373733
 20
295.7601889970135
 10
614.581906371416
 20
295.7474803439271
 10
614.5225128702522
 20
295.7304922464341
 10
614.5225128702522
 20
295.7304922464341
 10
614.5225128702522
 20
294.6145946973426
 10
614.5225128702522
 20
294.6145946973426
 10
614.5225128702522
 20
294.6145946973426
 10
614.8534565710431
 20
294.6145946973426
 10
614.8534565710431
 20
294.6145946973426
 97
        0
 97
        0
 75
     2
 76
     1
 98
        0
  0
ENDBLK
  5
C0
330
BD
100
AcDbEntity
  8
0
100
AcDbBlockEnd
  0
BLOCK
  5
111
330
10F
100
AcDbEntity
  8
0
100
AcDbBlockBegin
  2
block 8
 70
     0
 10
0.0
 20
0.0
 30
0.0
  3
block 8
  1

  0
SPLINE
  5
113
330
10F
100
AcDbEntity
  8
_U+56FE_U+5C42 1
370
     0
100
AcDbSpline
210
0.0
220
0.0
230
1.0
 70
    11
 71
     3
 72
    35
 73
    31
 74
     0
 42
0.0000000001
 43
0.0000000001
 12
1.0
 22
0.0
 32
0.0
 13
1.0
 23
0.0
 33
0.0
 40
0.0
 40
0.0
 40
0.0
 40
0.0
 40
1.0
 40
1.0
 40
1.0
 40
2.0
 40
2.0
 40
2.0
 40
3.0
 40
3.0
 40
3.0
 40
4.0
 40
4.0
 40
4.0
 40
5.0
 40
5.0
 40
5.0
 40
6.0
 40
6.0
 40
6.0
 40
7.0
 40
7.0
 40
7.0
 40
8.0
 40
8.0
 40
8.0
 40
9.0
 40
9.0
 40
9.0
 40
10.0
 40
10.0
 40
10.0
 40
10.0
 10
592.33735434518
 20
334.7538380305589
 30
0.0
 10
592.2015792453667
 20
334.6860153207189
 30
0.0
 10
591.925879281466
 20
334.6180629307455
 30
0.0
 10
591.5736680387779
 20
334.6180629307455
 30
0.0
 10
590.6699271881521
 20
334.6180629307455
 30
0.0
 10
590.0631538433306
 20
335.2162773867539
 30
0.0
 10
590.0631538433306
 20
336.2516435729186
 30
0.0
 10
590.0631538433306
 20
337.3548324689221
 30
0.0
 10
590.7590174398941
 20
337.9573263693376
 30
0.0
 10
591.6584788461095
 20
337.9573263693376
 30
0.0
 10
592.0319576306972
 20
337.9573263693376
 30
0.0
 10
592.2609727465268
 20
337.8766653262778
 30
0.0
 10
592.3500629982689
 20
337.8299804782038
 30
0.0
 10
592.3500629982689
 20
337.8299804782038
 30
0.0
 10
592.2439846490306
 20
337.4269346231688
 30
0.0
 10
592.2439846490306
 20
337.4269346231688
 30
0.0
 10
592.1082095492168
 20
337.4906075687359
 30
0.0
 10
591.9173203926507
 20
337.5457216254894
 30
0.0
 10
591.6754669436025
 20
337.5457216254894
 30
0.0
 10
591.0475557370136
 20
337.5457216254894
 30
0.0
 10
590.5808369364132
 20
337.1214082285545
 30
0.0
 10
590.5808369364132
 20
336.2770608790917
 30
0.0
 10
590.5808369364132
 20
335.4793983777019
 30
0.0
 10
590.9965914445352
 20
335.0339471190003
 30
0.0
 10
591.6670377349209
 20
335.0339471190003
 30
0.0
 10
591.8876236420726
 20
335.0339471190003
 30
0.0
 10
592.1124889936247
 20
335.0805022869401
 30
0.0
 10
592.2525435378491
 20
335.1484546769138
 30
0.0
 10
592.2525435378491
 20
335.1484546769138
 30
0.0
 10
592.33735434518
 20
334.7538380305589
 30
0.0
 10
592.33735434518
 20
334.7538380305589
 30
0.0
  0
HATCH
  5
114
330
10F
100
AcDbEntity
  8
_U+56FE_U+5C42 1
 62
    18
420
   262144
100
AcDbHatch
 10
0.0
 20
0.0
 30
0.0
210
0.0
220
0.0
230
1.0
  2
SOLID
 70
     1
 71
     0
 91
        1
 92
        1
 93
        1
 72
     4
 94
        3
 73
     0
 74
     1
 95
       35
 96
       31
 40
0.0
 40
0.0
 40
0.0
 40
0.0
 40
1.0
 40
1.0
 40
1.0
 40
2.0
 40
2.0
 40
2.0
 40
3.0
 40
3.0
 40
3.0
 40
4.0
 40
4.0
 40
4.0
 40
5.0
 40
5.0
 40
5.0
 40
6.0
 40
6.0
 40
6.0
 40
7.0
 40
7.0
 40
7.0
 40
8.0
 40
8.0
 40
8.0
 40
9.0
 40
9.0
 40
9.0
 40
10.0
 40
10.0
 40
10.0
 40
10.0
 10
592.33735434518
 20
334.7538380305589
 10
592.2015792453667
 20
334.6860153207189
 10
591.925879281466
 20
334.6180629307455
 10
591.5736680387779
 20
334.6180629307455
 10
590.6699271881521
 20
334.6180629307455
 10
590.0631538433306
 20
335.2162773867539
 10
590.0631538433306
 20
336.2516435729186
 10
590.0631538433306
 20
337.3548324689221
 10
590.7590174398941
 20
337.9573263693376
 10
591.6584788461095
 20
337.9573263693376
 10
592.0319576306972
 20
337.9573263693376
 10
592.2609727465268
 20
337.8766653262778
 10
592.3500629982689
 20
337.8299804782038
 10
592.3500629982689
 20
337.8299804782038
 10
592.2439846490306
 20
337.4269346231688
 10
592.2439846490306
 20
337.4269346231688
 10
592.1082095492168
 20
337.4906075687359
 10
591.9173203926507
 20
337.5457216254894
 10
591.6754669436025
 20
337.5457216254894
 10
591.0475557370136
 20
337.5457216254894
 10
590.5808369364132
 20
337.1214082285545
 10
590.5808369364132
 20
336.2770608790917
 10
590.5808369364132
 20
335.4793983777019
 10
590.9965914445352
 20
335.0339471190003
 10
591.6670377349209
 20
335.0339471190003
 10
591.8876236420726
 20
335.0339471190003
 10
592.1124889936247
 20
335.0805022869401
 10
592.2525435378491
 20
335.1484546769138
 10
592.2525435378491
 20
335.1484546769138
 10
592.33735434518
 20
334.7538380305589
 10
592.33735434518
 20
334.7538380305589
 97
        0
 97
        0
 75
     2
 76
     1
 98
        0
  0
SPLINE
  5
115
330
10F
100
AcDbEntity
  8
_U+56FE_U+5C42 1
370
     0
100
AcDbSpline
210
0.0
220
0.0
230
1.0
 70
    11
 71
     3
 72
    17
 73
    13
 74
     0
 42
0.0000000001
 43
0.0000000001
 12
1.0
 22
0.0
 32
0.0
 13
1.0
 23
0.0
 33
0.0
 40
0.0
 40
0.0
 40
0.0
 40
0.0
 40
1.0
 40
1.0
 40
1.0
 40
2.0
 40
2.0
 40
2.0
 40
3.0
 40
3.0
 40
3.0
 40
4.0
 40
4.0
 40
4.0
 40
4.0
 10
595.4045488636078
 20
336.3194662827581
 30
0.0
 10
595.4045488636078
 20
335.1908600805802
 30
0.0
 10
594.7977755187902
 20
334.6180629307455
 30
0.0
 10
594.0085422260767
 20
334.6180629307455
 30
0.0
 10
593.1811829741072
 20
334.6180629307455
 30
0.0
 10
592.650791227942
 20
335.2885092211346
 30
0.0
 10
592.650791227942
 20
336.2686316704113
 30
0.0
 10
592.650791227942
 20
337.2911595233554
 30
0.0
 10
593.2193089333701
 20
337.9614761336113
 30
0.0
 10
594.0509476297436
 20
337.9614761336113
 30
0.0
 10
594.912283076703
 20
337.9614761336113
 30
0.0
 10
595.4045488636078
 20
337.2529038839619
 30
0.0
 10
595.4045488636078
 20
336.3194662827581
 30
0.0
  0
SPLINE
  5
116
330
10F
100
AcDbEntity
  8
_U+56FE_U+5C42 1
370
     0
100
AcDbSpline
210
0.0
220
0.0
230
1.0
 70
    11
 71
     3
 72
    17
 73
    13
 74
     0
 42
0.0000000001
 43
0.0000000001
 12
1.0
 22
0.0
 32
0.0
 13
1.0
 23
0.0
 33
0.0
 40
0.0
 40
0.0
 40
0.0
 40
0.0
 40
1.0
 40
1.0
 40
1.0
 40
2.0
 40
2.0
 40
2.0
 40
3.0
 40
3.0
 40
3.0
 40
4.0
 40
4.0
 40
4.0
 40
4.0
 10
593.1684743210214
 20
336.2813403234983
 30
0.0
 10
593.1684743210214
 20
335.6236026861958
 30
0.0
 10
593.4654418268225
 20
335.02110878578
 30
0.0
 10
594.0255303235697
 20
335.02110878578
 30
0.0
 10
594.5940480289978
 20
335.02110878578
 30
0.0
 10
594.8868657705284
 20
335.6108940331094
 30
0.0
 10
594.8868657705284
 20
336.3024781852647
 30
0.0
 10
594.8868657705284
 20
336.9219601831738
 30
0.0
 10
594.6153155709013
 20
337.5584302785757
 30
0.0
 10
594.0339595322506
 20
337.5584302785757
 30
0.0
 10
593.4357450762444
 20
337.5584302785757
 30
0.0
 10
593.1684743210214
 20
336.9178104189005
 30
0.0
 10
593.1684743210214
 20
336.2813403234983
 30
0.0
  0
HATCH
  5
117
330
10F
100
AcDbEntity
  8
_U+56FE_U+5C42 1
 62
    18
420
   262144
100
AcDbHatch
 10
0.0
 20
0.0
 30
0.0
210
0.0
220
0.0
230
1.0
  2
SOLID
 70
     1
 71
     0
 91
        2
 92
        1
 93
        1
 72
     4
 94
        3
 73
     0
 74
     1
 95
       17
 96
       13
 40
0.0
 40
0.0
 40
0.0
 40
0.0
 40
1.0
 40
1.0
 40
1.0
 40
2.0
 40
2.0
 40
2.0
 40
3.0
 40
3.0
 40
3.0
 40
4.0
 40
4.0
 40
4.0
 40
4.0
 10
595.4045488636078
 20
336.3194662827581
 10
595.4045488636078
 20
335.1908600805802
 10
594.7977755187902
 20
334.6180629307455
 10
594.0085422260767
 20
334.6180629307455
 10
593.1811829741072
 20
334.6180629307455
 10
592.650791227942
 20
335.2885092211346
 10
592.650791227942
 20
336.2686316704113
 10
592.650791227942
 20
337.2911595233554
 10
593.2193089333701
 20
337.9614761336113
 10
594.0509476297436
 20
337.9614761336113
 10
594.912283076703
 20
337.9614761336113
 10
595.4045488636078
 20
337.2529038839619
 10
595.4045488636078
 20
336.3194662827581
 97
        0
 97
        0
 92
        1
 93
        1
 72
     4
 94
        3
 73
     0
 74
     1
 95
       17
 96
       13
 40
0.0
 40
0.0
 40
0.0
 40
0.0
 40
1.0
 40
1.0
 40
1.0
 40
2.0
 40
2.0
 40
2.0
 40
3.0
 40
3.0
 40
3.0
 40
4.0
 40
4.0
 40
4.0
 40
4.0
 10
593.1684743210214
 20
336.2813403234983
 10
593.1684743210214
 20
335.6236026861958
 10
593.4654418268225
 20
335.02110878578
 10
594.0255303235697
 20
335.02110878578
 10
594.5940480289978
 20
335.02110878578
 10
594.8868657705284
 20
335.6108940331094
 10
594.8868657705284
 20
336.3024781852647
 10
594.8868657705284
 20
336.9219601831738
 10
594.6153155709013
 20
337.5584302785757
 10
594.0339595322506
 20
337.5584302785757
 10
593.4357450762444
 20
337.5584302785757
 10
593.1684743210214
 20
336.9178104189005
 10
593.1684743210214
 20
336.2813403234983
 97
        0
 97
        0
 75
     2
 76
     1
 98
        0
  0
SPLINE
  5
118
330
10F
100
AcDbEntity
  8
_U+56FE_U+5C42 1
370
     0
100
AcDbSpline
210
0.0
220
0.0
230
1.0
 70
    11
 71
     3
 72
    35
 73
    31
 74
     0
 42
0.0000000001
 43
0.0000000001
 12
1.0
 22
0.0
 32
0.0
 13
1.0
 23
0.0
 33
0.0
 40
0.0
 40
0.0
 40
0.0
 40
0.0
 40
1.0
 40
1.0
 40
1.0
 40
2.0
 40
2.0
 40
2.0
 40
3.0
 40
3.0
 40
3.0
 40
4.0
 40
4.0
 40
4.0
 40
5.0
 40
5.0
 40
5.0
 40
6.0
 40
6.0
 40
6.0
 40
7.0
 40
7.0
 40
7.0
 40
8.0
 40
8.0
 40
8.0
 40
9.0
 40
9.0
 40
9.0
 40
10.0
 40
10.0
 40
10.0
 40
10.0
 10
598.1913749333332
 20
335.9885225819702
 30
0.0
 10
598.1913749333332
 20
335.025388230187
 30
0.0
 10
597.711947479644
 20
334.6180629307455
 30
0.0
 10
597.0203633274915
 20
334.6180629307455
 30
0.0
 10
596.3541964815022
 20
334.6180629307455
 30
0.0
 10
595.904465778395
 20
335.0084001326936
 30
0.0
 10
595.904465778395
 20
335.9758139288839
 30
0.0
 10
595.904465778395
 20
335.9758139288839
 30
0.0
 10
595.904465778395
 20
337.9106415212642
 30
0.0
 10
595.904465778395
 20
337.9106415212642
 30
0.0
 10
595.904465778395
 20
337.9106415212642
 30
0.0
 10
596.3966018851731
 20
337.9106415212642
 30
0.0
 10
596.3966018851731
 20
337.9106415212642
 30
0.0
 10
596.3966018851731
 20
337.9106415212642
 30
0.0
 10
596.3966018851731
 20
335.9461171783036
 30
0.0
 10
596.3966018851731
 20
335.9461171783036
 30
0.0
 10
596.3966018851731
 20
335.2969384298146
 30
0.0
 10
596.6638726403922
 20
335.02110878578
 30
0.0
 10
597.0373514249845
 20
335.02110878578
 30
0.0
 10
597.444676724421
 20
335.02110878578
 30
0.0
 10
597.699238826555
 20
335.301217874221
 30
0.0
 10
597.699238826555
 20
335.9461171783036
 30
0.0
 10
597.699238826555
 20
335.9461171783036
 30
0.0
 10
597.699238826555
 20
337.9106415212642
 30
0.0
 10
597.699238826555
 20
337.9106415212642
 30
0.0
 10
597.699238826555
 20
337.9106415212642
 30
0.0
 10
598.1913749333332
 20
337.9106415212642
 30
0.0
 10
598.1913749333332
 20
337.9106415212642
 30
0.0
 10
598.1913749333332
 20
337.9106415212642
 30
0.0
 10
598.1913749333332
 20
335.9885225819702
 30
0.0
 10
598.1913749333332
 20
335.9885225819702
 30
0.0
  0
HATCH
  5
119
330
10F
100
AcDbEntity
  8
_U+56FE_U+5C42 1
 62
    18
420
   262144
100
AcDbHatch
 10
0.0
 20
0.0
 30
0.0
210
0.0
220
0.0
230
1.0
  2
SOLID
 70
     1
 71
     0
 91
        1
 92
        1
 93
        1
 72
     4
 94
        3
 73
     0
 74
     1
 95
       35
 96
       31
 40
0.0
 40
0.0
 40
0.0
 40
0.0
 40
1.0
 40
1.0
 40
1.0
 40
2.0
 40
2.0
 40
2.0
 40
3.0
 40
3.0
 40
3.0
 40
4.0
 40
4.0
 40
4.0
 40
5.0
 40
5.0
 40
5.0
 40
6.0
 40
6.0
 40
6.0
 40
7.0
 40
7.0
 40
7.0
 40
8.0
 40
8.0
 40
8.0
 40
9.0
 40
9.0
 40
9.0
 40
10.0
 40
10.0
 40
10.0
 40
10.0
 10
598.1913749333332
 20
335.9885225819702
 10
598.1913749333332
 20
335.025388230187
 10
597.711947479644
 20
334.6180629307455
 10
597.0203633274915
 20
334.6180629307455
 10
596.3541964815022
 20
334.6180629307455
 10
595.904465778395
 20
335.0084001326936
 10
595.904465778395
 20
335.9758139288839
 10
595.904465778395
 20
335.9758139288839
 10
595.904465778395
 20
337.9106415212642
 10
595.904465778395
 20
337.9106415212642
 10
595.904465778395
 20
337.9106415212642
 10
596.3966018851731
 20
337.9106415212642
 10
596.3966018851731
 20
337.9106415212642
 10
596.3966018851731
 20
337.9106415212642
 10
596.3966018851731
 20
335.9461171783036
 10
596.3966018851731
 20
335.9461171783036
 10
596.3966018851731
 20
335.2969384298146
 10
596.6638726403922
 20
335.02110878578
 10
597.0373514249845
 20
335.02110878578
 10
597.444676724421
 20
335.02110878578
 10
597.699238826555
 20
335.301217874221
 10
597.699238826555
 20
335.9461171783036
 10
597.699238826555
 20
335.9461171783036
 10
597.699238826555
 20
337.9106415212642
 10
597.699238826555
 20
337.9106415212642
 10
597.699238826555
 20
337.9106415212642
 10
598.1913749333332
 20
337.9106415212642
 10
598.1913749333332
 20
337.9106415212642
 10
598.1913749333332
 20
337.9106415212642
 10
598.1913749333332
 20
335.9885225819702
 10
598.1913749333332
 20
335.9885225819702
 97
        0
 97
        0
 75
     2
 76
     1
 98
        0
  0
SPLINE
  5
11A
330
10F
100
AcDbEntity
  8
_U+56FE_U+5C42 1
370
     0
100
AcDbSpline
210
0.0
220
0.0
230
1.0
 70
    11
 71
     3
 72
    53
 73
    49
 74
     0
 42
0.0000000001
 43
0.0000000001
 12
1.0
 22
0.0
 32
0.0
 13
1.0
 23
0.0
 33
0.0
 40
0.0
 40
0.0
 40
0.0
 40
0.0
 40
1.0
 40
1.0
 40
1.0
 40
2.0
 40
2.0
 40
2.0
 40
3.0
 40
3.0
 40
3.0
 40
4.0
 40
4.0
 40
4.0
 40
5.0
 40
5.0
 40
5.0
 40
6.0
 40
6.0
 40
6.0
 40
7.0
 40
7.0
 40
7.0
 40
8.0
 40
8.0
 40
8.0
 40
9.0
 40
9.0
 40
9.0
 40
10.0
 40
10.0
 40
10.0
 40
11.0
 40
11.0
 40
11.0
 40
12.0
 40
12.0
 40
12.0
 40
13.0
 40
13.0
 40
13.0
 40
14.0
 40
14.0
 40
14.0
 40
15.0
 40
15.0
 40
15.0
 40
16.0
 40
16.0
 40
16.0
 40
16.0
 10
601.1863376173823
 20
334.6647477788188
 30
0.0
 10
601.1863376173823
 20
334.6647477788188
 30
0.0
 10
600.6899220661993
 20
334.6647477788188
 30
0.0
 10
600.6899220661993
 20
334.6647477788188
 30
0.0
 10
600.6899220661993
 20
334.6647477788188
 30
0.0
 10
599.837145508059
 20
336.1836911829445
 30
0.0
 10
599.837145508059
 20
336.1836911829445
 30
0.0
 10
599.6419769070819
 20
336.5359024256323
 30
0.0
 10
599.4468083061087
 20
336.9178104189005
 30
0.0
 10
599.2983245532097
 20
337.2826006345417
 30
0.0
 10
599.2983245532097
 20
337.2826006345417
 30
0.0
 10
599.2813364557167
 20
337.2784508702687
 30
0.0
 10
599.2813364557167
 20
337.2784508702687
 30
0.0
 10
599.3067537618875
 20
336.8668461264205
 30
0.0
 10
599.3151829705685
 20
336.4468121738922
 30
0.0
 10
599.3151829705685
 20
335.8782944684638
 30
0.0
 10
599.3151829705685
 20
335.8782944684638
 30
0.0
 10
599.3151829705685
 20
334.6647477788188
 30
0.0
 10
599.3151829705685
 20
334.6647477788188
 30
0.0
 10
599.3151829705685
 20
334.6647477788188
 30
0.0
 10
598.8613025031875
 20
334.6647477788188
 30
0.0
 10
598.8613025031875
 20
334.6647477788188
 30
0.0
 10
598.8613025031875
 20
334.6647477788188
 30
0.0
 10
598.8613025031875
 20
337.9106415212642
 30
0.0
 10
598.8613025031875
 20
337.9106415212642
 30
0.0
 10
598.8613025031875
 20
337.9106415212642
 30
0.0
 10
599.3958440136328
 20
337.9106415212642
 30
0.0
 10
599.3958440136328
 20
337.9106415212642
 30
0.0
 10
599.3958440136328
 20
337.9106415212642
 30
0.0
 10
600.2444708074961
 20
336.4085565344985
 30
0.0
 10
600.2444708074961
 20
336.4085565344985
 30
0.0
 10
600.4480686171543
 20
336.0521955275373
 30
0.0
 10
600.6305285650432
 20
335.6788464230825
 30
0.0
 10
600.7705831092604
 20
335.3351940692081
 30
0.0
 10
600.7705831092604
 20
335.3351940692081
 30
0.0
 10
600.7832917623493
 20
335.3393438334814
 30
0.0
 10
600.7832917623493
 20
335.3393438334814
 30
0.0
 10
600.7451658030897
 20
335.7806453279097
 30
0.0
 10
600.7323274698671
 20
336.1963998360312
 30
0.0
 10
600.7323274698671
 20
336.7140829291129
 30
0.0
 10
600.7323274698671
 20
336.7140829291129
 30
0.0
 10
600.7323274698671
 20
337.9106415212642
 30
0.0
 10
600.7323274698671
 20
337.9106415212642
 30
0.0
 10
600.7323274698671
 20
337.9106415212642
 30
0.0
 10
601.1863376173823
 20
337.9106415212642
 30
0.0
 10
601.1863376173823
 20
337.9106415212642
 30
0.0
 10
601.1863376173823
 20
337.9106415212642
 30
0.0
 10
601.1863376173823
 20
334.6647477788188
 30
0.0
 10
601.1863376173823
 20
334.6647477788188
 30
0.0
  0
HATCH
  5
11B
330
10F
100
AcDbEntity
  8
_U+56FE_U+5C42 1
 62
    18
420
   262144
100
AcDbHatch
 10
0.0
 20
0.0
 30
0.0
210
0.0
220
0.0
230
1.0
  2
SOLID
 70
     1
 71
     0
 91
        1
 92
        1
 93
        1
 72
     4
 94
        3
 73
     0
 74
     1
 95
       53
 96
       49
 40
0.0
 40
0.0
 40
0.0
 40
0.0
 40
1.0
 40
1.0
 40
1.0
 40
2.0
 40
2.0
 40
2.0
 40
3.0
 40
3.0
 40
3.0
 40
4.0
 40
4.0
 40
4.0
 40
5.0
 40
5.0
 40
5.0
 40
6.0
 40
6.0
 40
6.0
 40
7.0
 40
7.0
 40
7.0
 40
8.0
 40
8.0
 40
8.0
 40
9.0
 40
9.0
 40
9.0
 40
10.0
 40
10.0
 40
10.0
 40
11.0
 40
11.0
 40
11.0
 40
12.0
 40
12.0
 40
12.0
 40
13.0
 40
13.0
 40
13.0
 40
14.0
 40
14.0
 40
14.0
 40
15.0
 40
15.0
 40
15.0
 40
16.0
 40
16.0
 40
16.0
 40
16.0
 10
601.1863376173823
 20
334.6647477788188
 10
601.1863376173823
 20
334.6647477788188
 10
600.6899220661993
 20
334.6647477788188
 10
600.6899220661993
 20
334.6647477788188
 10
600.6899220661993
 20
334.6647477788188
 10
599.837145508059
 20
336.1836911829445
 10
599.837145508059
 20
336.1836911829445
 10
599.6419769070819
 20
336.5359024256323
 10
599.4468083061087
 20
336.9178104189005
 10
599.2983245532097
 20
337.2826006345417
 10
599.2983245532097
 20
337.2826006345417
 10
599.2813364557167
 20
337.2784508702687
 10
599.2813364557167
 20
337.2784508702687
 10
599.3067537618875
 20
336.8668461264205
 10
599.3151829705685
 20
336.4468121738922
 10
599.3151829705685
 20
335.8782944684638
 10
599.3151829705685
 20
335.8782944684638
 10
599.3151829705685
 20
334.6647477788188
 10
599.3151829705685
 20
334.6647477788188
 10
599.3151829705685
 20
334.6647477788188
 10
598.8613025031875
 20
334.6647477788188
 10
598.8613025031875
 20
334.6647477788188
 10
598.8613025031875
 20
334.6647477788188
 10
598.8613025031875
 20
337.9106415212642
 10
598.8613025031875
 20
337.9106415212642
 10
598.8613025031875
 20
337.9106415212642
 10
599.3958440136328
 20
337.9106415212642
 10
599.3958440136328
 20
337.9106415212642
 10
599.3958440136328
 20
337.9106415212642
 10
600.2444708074961
 20
336.4085565344985
 10
600.2444708074961
 20
336.4085565344985
 10
600.4480686171543
 20
336.0521955275373
 10
600.6305285650432
 20
335.6788464230825
 10
600.7705831092604
 20
335.3351940692081
 10
600.7705831092604
 20
335.3351940692081
 10
600.7832917623493
 20
335.3393438334814
 10
600.7832917623493
 20
335.3393438334814
 10
600.7451658030897
 20
335.7806453279097
 10
600.7323274698671
 20
336.1963998360312
 10
600.7323274698671
 20
336.7140829291129
 10
600.7323274698671
 20
336.7140829291129
 10
600.7323274698671
 20
337.9106415212642
 10
600.7323274698671
 20
337.9106415212642
 10
600.7323274698671
 20
337.9106415212642
 10
601.1863376173823
 20
337.9106415212642
 10
601.1863376173823
 20
337.9106415212642
 10
601.1863376173823
 20
337.9106415212642
 10
601.1863376173823
 20
334.6647477788188
 10
601.1863376173823
 20
334.6647477788188
 97
        0
 97
        0
 75
     2
 76
     1
 98
        0
  0
POLYLINE
  5
11C
330
10F
100
AcDbEntity
  8
_U+56FE_U+5C42 1
370
     0
100
AcDb2dPolyline
 66
     1
 10
0.0
 20
0.0
 30
0.0
  0
VERTEX
  5
11D
330
11C
100
AcDbEntity
  8
_U+56FE_U+5C42 1
370
     0
100
AcDbVertex
100
AcDb2dVertex
 10
603.7952425438908
 20
337.4906075687359
 30
0.0
  0
VERTEX
  5
11E
330
11C
100
AcDbEntity
  8
_U+56FE_U+5C42 1
370
     0
100
AcDbVertex
100
AcDb2dVertex
 10
602.9169189994391
 20
337.4906075687359
 30
0.0
  0
VERTEX
  5
11F
330
11C
100
AcDbEntity
  8
_U+56FE_U+5C42 1
370
     0
100
AcDbVertex
100
AcDb2dVertex
 10
602.9169189994391
 20
334.6647477788188
 30
0.0
  0
VERTEX
  5
120
330
11C
100
AcDbEntity
  8
_U+56FE_U+5C42 1
370
     0
100
AcDbVertex
100
AcDb2dVertex
 10
602.4246532125336
 20
334.6647477788188
 30
0.0
  0
VERTEX
  5
121
330
11C
100
AcDbEntity
  8
_U+56FE_U+5C42 1
370
     0
100
AcDbVertex
100
AcDb2dVertex
 10
602.4246532125336
 20
337.4906075687359
 30
0.0
  0
VERTEX
  5
122
330
11C
100
AcDbEntity
  8
_U+56FE_U+5C42 1
370
     0
100
AcDbVertex
100
AcDb2dVertex
 10
601.5506091124892
 20
337.4906075687359
 30
0.0
  0
VERTEX
  5
123
330
11C
100
AcDbEntity
  8
_U+56FE_U+5C42 1
370
     0
100
AcDbVertex
100
AcDb2dVertex
 10
601.5506091124892
 20
337.9106415212642
 30
0.0
  0
VERTEX
  5
124
330
11C
100
AcDbEntity
  8
_U+56FE_U+5C42 1
370
     0
100
AcDbVertex
100
AcDb2dVertex
 10
603.7952425438908
 20
337.9106415212642
 30
0.0
  0
VERTEX
  5
125
330
11C
100
AcDbEntity
  8
_U+56FE_U+5C42 1
370
     0
100
AcDbVertex
100
AcDb2dVertex
 10
603.7952425438908
 20
337.4906075687359
 30
0.0
  0
SEQEND
  5
126
330
11C
100
AcDbEntity
  8
_U+56FE_U+5C42 1
370
     0
  0
HATCH
  5
127
330
10F
100
AcDbEntity
  8
_U+56FE_U+5C42 1
 62
    18
420
   262144
100
AcDbHatch
 10
0.0
 20
0.0
 30
0.0
210
0.0
220
0.0
230
1.0
  2
SOLID
 70
     1
 71
     0
 91
        1
 92
        1
 93
        8
 72
     1
 10
603.7952425438908
 20
337.4906075687359
 11
602.9169189994391
 21
337.4906075687359
 72
     1
 10
602.9169189994391
 20
337.4906075687359
 11
602.9169189994391
 21
334.6647477788188
 72
     1
 10
602.9169189994391
 20
334.6647477788188
 11
602.4246532125336
 21
334.6647477788188
 72
     1
 10
602.4246532125336
 20
334.6647477788188
 11
602.4246532125336
 21
337.4906075687359
 72
     1
 10
602.4246532125336
 20
337.4906075687359
 11
601.5506091124892
 21
337.4906075687359
 72
     1
 10
601.5506091124892
 20
337.4906075687359
 11
601.5506091124892
 21
337.9106415212642
 72
     1
 10
601.5506091124892
 20
337.9106415212642
 11
603.7952425438908
 21
337.9106415212642
 72
     1
 10
603.7952425438908
 20
337.9106415212642
 11
603.7952425438908
 21
337.4906075687359
 97
        0
 75
     2
 76
     1
 98
        0
  0
POLYLINE
  5
128
330
10F
100
AcDbEntity
  8
_U+56FE_U+5C42 1
370
     0
100
AcDb2dPolyline
 66
     1
 10
0.0
 20
0.0
 30
0.0
  0
VERTEX
  5
129
330
128
100
AcDbEntity
  8
_U+56FE_U+5C42 1
370
     0
100
AcDbVertex
100
AcDb2dVertex
 10
605.9288697809876
 20
334.6647477788188
 30
0.0
  0
VERTEX
  5
12A
330
128
100
AcDbEntity
  8
_U+56FE_U+5C42 1
370
     0
100
AcDbVertex
100
AcDb2dVertex
 10
604.1595140389984
 20
334.6647477788188
 30
0.0
  0
VERTEX
  5
12B
330
128
100
AcDbEntity
  8
_U+56FE_U+5C42 1
370
     0
100
AcDbVertex
100
AcDb2dVertex
 10
604.1595140389984
 20
337.9106415212642
 30
0.0
  0
VERTEX
  5
12C
330
128
100
AcDbEntity
  8
_U+56FE_U+5C42 1
370
     0
100
AcDbVertex
100
AcDb2dVertex
 10
605.8567676267386
 20
337.9106415212642
 30
0.0
  0
VERTEX
  5
12D
330
128
100
AcDbEntity
  8
_U+56FE_U+5C42 1
370
     0
100
AcDbVertex
100
AcDb2dVertex
 10
605.8567676267386
 20
337.4990367774163
 30
0.0
  0
VERTEX
  5
12E
330
128
100
AcDbEntity
  8
_U+56FE_U+5C42 1
370
     0
100
AcDbVertex
100
AcDb2dVertex
 10
604.6517798259102
 20
337.4990367774163
 30
0.0
  0
VERTEX
  5
12F
330
128
100
AcDbEntity
  8
_U+56FE_U+5C42 1
370
     0
100
AcDbVertex
100
AcDb2dVertex
 10
604.6517798259102
 20
336.5613197318057
 30
0.0
  0
VERTEX
  5
130
330
128
100
AcDbEntity
  8
_U+56FE_U+5C42 1
370
     0
100
AcDbVertex
100
AcDb2dVertex
 10
605.7888152367633
 20
336.5613197318057
 30
0.0
  0
VERTEX
  5
131
330
128
100
AcDbEntity
  8
_U+56FE_U+5C42 1
370
     0
100
AcDbVertex
100
AcDb2dVertex
 10
605.7888152367633
 20
336.1539944323645
 30
0.0
  0
VERTEX
  5
132
330
128
100
AcDbEntity
  8
_U+56FE_U+5C42 1
370
     0
100
AcDbVertex
100
AcDb2dVertex
 10
604.6517798259102
 20
336.1539944323645
 30
0.0
  0
VERTEX
  5
133
330
128
100
AcDbEntity
  8
_U+56FE_U+5C42 1
370
     0
100
AcDbVertex
100
AcDb2dVertex
 10
604.6517798259102
 20
335.076352522667
 30
0.0
  0
VERTEX
  5
134
330
128
100
AcDbEntity
  8
_U+56FE_U+5C42 1
370
     0
100
AcDbVertex
100
AcDb2dVertex
 10
605.9288697809876
 20
335.076352522667
 30
0.0
  0
VERTEX
  5
135
330
128
100
AcDbEntity
  8
_U+56FE_U+5C42 1
370
     0
100
AcDbVertex
100
AcDb2dVertex
 10
605.9288697809876
 20
334.6647477788188
 30
0.0
  0
SEQEND
  5
136
330
128
100
AcDbEntity
  8
_U+56FE_U+5C42 1
370
     0
  0
HATCH
  5
137
330
10F
100
AcDbEntity
  8
_U+56FE_U+5C42 1
 62
    18
420
   262144
100
AcDbHatch
 10
0.0
 20
0.0
 30
0.0
210
0.0
220
0.0
230
1.0
  2
SOLID
 70
     1
 71
     0
 91
        1
 92
        1
 93
       12
 72
     1
 10
605.9288697809876
 20
334.6647477788188
 11
604.1595140389984
 21
334.6647477788188
 72
     1
 10
604.1595140389984
 20
334.6647477788188
 11
604.1595140389984
 21
337.9106415212642
 72
     1
 10
604.1595140389984
 20
337.9106415212642
 11
605.8567676267386
 21
337.9106415212642
 72
     1
 10
605.8567676267386
 20
337.9106415212642
 11
605.8567676267386
 21
337.4990367774163
 72
     1
 10
605.8567676267386
 20
337.4990367774163
 11
604.6517798259102
 21
337.4990367774163
 72
     1
 10
604.6517798259102
 20
337.4990367774163
 11
604.6517798259102
 21
336.5613197318057
 72
     1
 10
604.6517798259102
 20
336.5613197318057
 11
605.7888152367633
 21
336.5613197318057
 72
     1
 10
605.7888152367633
 20
336.5613197318057
 11
605.7888152367633
 21
336.1539944323645
 72
     1
 10
605.7888152367633
 20
336.1539944323645
 11
604.6517798259102
 21
336.1539944323645
 72
     1
 10
604.6517798259102
 20
336.1539944323645
 11
604.6517798259102
 21
335.076352522667
 72
     1
 10
604.6517798259102
 20
335.076352522667
 11
605.9288697809876
 21
335.076352522667
 72
     1
 10
605.9288697809876
 20
335.076352522667
 11
605.9288697809876
 21
334.6647477788188
 97
        0
 75
     2
 76
     1
 98
        0
  0
SPLINE
  5
138
330
10F
100
AcDbEntity
  8
_U+56FE_U+5C42 1
370
     0
100
AcDbSpline
210
0.0
220
0.0
230
1.0
 70
    11
 71
     3
 72
    47
 73
    43
 74
     0
 42
0.0000000001
 43
0.0000000001
 12
1.0
 22
0.0
 32
0.0
 13
1.0
 23
0.0
 33
0.0
 40
0.0
 40
0.0
 40
0.0
 40
0.0
 40
1.0
 40
1.0
 40
1.0
 40
2.0
 40
2.0
 40
2.0
 40
3.0
 40
3.0
 40
3.0
 40
4.0
 40
4.0
 40
4.0
 40
5.0
 40
5.0
 40
5.0
 40
6.0
 40
6.0
 40
6.0
 40
7.0
 40
7.0
 40
7.0
 40
8.0
 40
8.0
 40
8.0
 40
9.0
 40
9.0
 40
9.0
 40
10.0
 40
10.0
 40
10.0
 40
11.0
 40
11.0
 40
11.0
 40
12.0
 40
12.0
 40
12.0
 40
13.0
 40
13.0
 40
13.0
 40
14.0
 40
14.0
 40
14.0
 40
14.0
 10
608.7709395875955
 20
336.2092381692509
 30
0.0
 10
609.0127930366407
 20
336.1201479175114
 30
0.0
 10
609.1485681364545
 20
335.8910031215505
 30
0.0
 10
609.2249497351108
 20
335.5473507676757
 30
0.0
 10
609.3225988756649
 20
335.1230373707411
 30
0.0
 10
609.4031302385918
 20
334.7878142255457
 30
0.0
 10
609.4668031841597
 20
334.6647477788188
 30
0.0
 10
609.4668031841597
 20
334.6647477788188
 30
0.0
 10
608.9576789798879
 20
334.6647477788188
 30
0.0
 10
608.9576789798879
 20
334.6647477788188
 30
0.0
 10
608.9109941318135
 20
334.758117474966
 30
0.0
 10
608.8346125331636
 20
335.0423763276806
 30
0.0
 10
608.7539514901025
 20
335.4412724184415
 30
0.0
 10
608.6648612383605
 20
335.8740150240567
 30
0.0
 10
608.5079482767806
 20
336.0394868744507
 30
0.0
 10
608.1641662427709
 20
336.0394868744507
 30
0.0
 10
608.1641662427709
 20
336.0394868744507
 30
0.0
 10
607.8671987369697
 20
336.0394868744507
 30
0.0
 10
607.8671987369697
 20
336.0394868744507
 30
0.0
 10
607.8671987369697
 20
336.0394868744507
 30
0.0
 10
607.8671987369697
 20
334.6647477788188
 30
0.0
 10
607.8671987369697
 20
334.6647477788188
 30
0.0
 10
607.8671987369697
 20
334.6647477788188
 30
0.0
 10
607.3792123944685
 20
334.6647477788188
 30
0.0
 10
607.3792123944685
 20
334.6647477788188
 30
0.0
 10
607.3792123944685
 20
334.6647477788188
 30
0.0
 10
607.3792123944685
 20
337.8682361175975
 30
0.0
 10
607.3792123944685
 20
337.8682361175975
 30
0.0
 10
607.5872193286649
 20
337.9063620768575
 30
0.0
 10
607.875757625785
 20
337.9360588274375
 30
0.0
 10
608.168445687182
 20
337.9360588274375
 30
0.0
 10
608.5927590841153
 20
337.9360588274375
 30
0.0
 10
608.8897265899163
 20
337.8596772287841
 30
0.0
 10
609.0934540797017
 20
337.6772172808969
 30
0.0
 10
609.263205374501
 20
337.528733527996
 30
0.0
 10
609.3522956262431
 20
337.3038681764421
 30
0.0
 10
609.3522956262431
 20
337.0407471854944
 30
0.0
 10
609.3522956262431
 20
336.6249926773731
 30
0.0
 10
609.097733524109
 20
336.3407338246584
 30
0.0
 10
608.7709395875955
 20
336.2176673779313
 30
0.0
 10
608.7709395875955
 20
336.2176673779313
 30
0.0
 10
608.7709395875955
 20
336.2092381692509
 30
0.0
 10
608.7709395875955
 20
336.2092381692509
 30
0.0
  0
SPLINE
  5
139
330
10F
100
AcDbEntity
  8
_U+56FE_U+5C42 1
370
     0
100
AcDbSpline
210
0.0
220
0.0
230
1.0
 70
    11
 71
     3
 72
    20
 73
    16
 74
     0
 42
0.0000000001
 43
0.0000000001
 12
1.0
 22
0.0
 32
0.0
 13
1.0
 23
0.0
 33
0.0
 40
0.0
 40
0.0
 40
0.0
 40
0.0
 40
1.0
 40
1.0
 40
1.0
 40
2.0
 40
2.0
 40
2.0
 40
3.0
 40
3.0
 40
3.0
 40
4.0
 40
4.0
 40
4.0
 40
5.0
 40
5.0
 40
5.0
 40
5.0
 10
608.1981424377569
 20
336.4085565344985
 30
0.0
 10
608.6054677372003
 20
336.4085565344985
 30
0.0
 10
608.8600298393344
 20
336.6419807748661
 30
0.0
 10
608.8600298393344
 20
336.9899125731476
 30
0.0
 10
608.8600298393344
 20
337.4099465256762
 30
0.0
 10
608.5630623335334
 20
337.5541508341697
 30
0.0
 10
608.2108510908458
 20
337.5541508341697
 30
0.0
 10
608.0453792404501
 20
337.5541508341697
 30
0.0
 10
607.926592238133
 20
337.541442181083
 30
0.0
 10
607.8671987369697
 20
337.5244540835893
 30
0.0
 10
607.8671987369697
 20
337.5244540835893
 30
0.0
 10
607.8671987369697
 20
336.4085565344985
 30
0.0
 10
607.8671987369697
 20
336.4085565344985
 30
0.0
 10
607.8671987369697
 20
336.4085565344985
 30
0.0
 10
608.1981424377569
 20
336.4085565344985
 30
0.0
 10
608.1981424377569
 20
336.4085565344985
 30
0.0
  0
HATCH
  5
13A
330
10F
100
AcDbEntity
  8
_U+56FE_U+5C42 1
 62
    18
420
   262144
100
AcDbHatch
 10
0.0
 20
0.0
 30
0.0
210
0.0
220
0.0
230
1.0
  2
SOLID
 70
     1
 71
     0
 91
        2
 92
        1
 93
        1
 72
     4
 94
        3
 73
     0
 74
     1
 95
       47
 96
       43
 40
0.0
 40
0.0
 40
0.0
 40
0.0
 40
1.0
 40
1.0
 40
1.0
 40
2.0
 40
2.0
 40
2.0
 40
3.0
 40
3.0
 40
3.0
 40
4.0
 40
4.0
 40
4.0
 40
5.0
 40
5.0
 40
5.0
 40
6.0
 40
6.0
 40
6.0
 40
7.0
 40
7.0
 40
7.0
 40
8.0
 40
8.0
 40
8.0
 40
9.0
 40
9.0
 40
9.0
 40
10.0
 40
10.0
 40
10.0
 40
11.0
 40
11.0
 40
11.0
 40
12.0
 40
12.0
 40
12.0
 40
13.0
 40
13.0
 40
13.0
 40
14.0
 40
14.0
 40
14.0
 40
14.0
 10
608.7709395875955
 20
336.2092381692509
 10
609.0127930366407
 20
336.1201479175114
 10
609.1485681364545
 20
335.8910031215505
 10
609.2249497351108
 20
335.5473507676757
 10
609.3225988756649
 20
335.1230373707411
 10
609.4031302385918
 20
334.7878142255457
 10
609.4668031841597
 20
334.6647477788188
 10
609.4668031841597
 20
334.6647477788188
 10
608.9576789798879
 20
334.6647477788188
 10
608.9576789798879
 20
334.6647477788188
 10
608.9109941318135
 20
334.758117474966
 10
608.8346125331636
 20
335.0423763276806
 10
608.7539514901025
 20
335.4412724184415
 10
608.6648612383605
 20
335.8740150240567
 10
608.5079482767806
 20
336.0394868744507
 10
608.1641662427709
 20
336.0394868744507
 10
608.1641662427709
 20
336.0394868744507
 10
607.8671987369697
 20
336.0394868744507
 10
607.8671987369697
 20
336.0394868744507
 10
607.8671987369697
 20
336.0394868744507
 10
607.8671987369697
 20
334.6647477788188
 10
607.8671987369697
 20
334.6647477788188
 10
607.8671987369697
 20
334.6647477788188
 10
607.3792123944685
 20
334.6647477788188
 10
607.3792123944685
 20
334.6647477788188
 10
607.3792123944685
 20
334.6647477788188
 10
607.3792123944685
 20
337.8682361175975
 10
607.3792123944685
 20
337.8682361175975
 10
607.5872193286649
 20
337.9063620768575
 10
607.875757625785
 20
337.9360588274375
 10
608.168445687182
 20
337.9360588274375
 10
608.5927590841153
 20
337.9360588274375
 10
608.8897265899163
 20
337.8596772287841
 10
609.0934540797017
 20
337.6772172808969
 10
609.263205374501
 20
337.528733527996
 10
609.3522956262431
 20
337.3038681764421
 10
609.3522956262431
 20
337.0407471854944
 10
609.3522956262431
 20
336.6249926773731
 10
609.097733524109
 20
336.3407338246584
 10
608.7709395875955
 20
336.2176673779313
 10
608.7709395875955
 20
336.2176673779313
 10
608.7709395875955
 20
336.2092381692509
 10
608.7709395875955
 20
336.2092381692509
 97
        0
 97
        0
 92
        1
 93
        1
 72
     4
 94
        3
 73
     0
 74
     1
 95
       20
 96
       16
 40
0.0
 40
0.0
 40
0.0
 40
0.0
 40
1.0
 40
1.0
 40
1.0
 40
2.0
 40
2.0
 40
2.0
 40
3.0
 40
3.0
 40
3.0
 40
4.0
 40
4.0
 40
4.0
 40
5.0
 40
5.0
 40
5.0
 40
5.0
 10
608.1981424377569
 20
336.4085565344985
 10
608.6054677372003
 20
336.4085565344985
 10
608.8600298393344
 20
336.6419807748661
 10
608.8600298393344
 20
336.9899125731476
 10
608.8600298393344
 20
337.4099465256762
 10
608.5630623335334
 20
337.5541508341697
 10
608.2108510908458
 20
337.5541508341697
 10
608.0453792404501
 20
337.5541508341697
 10
607.926592238133
 20
337.541442181083
 10
607.8671987369697
 20
337.5244540835893
 10
607.8671987369697
 20
337.5244540835893
 10
607.8671987369697
 20
336.4085565344985
 10
607.8671987369697
 20
336.4085565344985
 10
607.8671987369697
 20
336.4085565344985
 10
608.1981424377569
 20
336.4085565344985
 10
608.1981424377569
 20
336.4085565344985
 97
        0
 97
        0
 75
     2
 76
     1
 98
        0
  0
POLYLINE
  5
13B
330
10F
100
AcDbEntity
  8
_U+56FE_U+5C42 1
370
     0
100
AcDb2dPolyline
 66
     1
 10
0.0
 20
0.0
 30
0.0
  0
VERTEX
  5
13C
330
13B
100
AcDbEntity
  8
_U+56FE_U+5C42 1
370
     0
100
AcDbVertex
100
AcDb2dVertex
 10
611.8339843417536
 20
337.4906075687359
 30
0.0
  0
VERTEX
  5
13D
330
13B
100
AcDbEntity
  8
_U+56FE_U+5C42 1
370
     0
100
AcDbVertex
100
AcDb2dVertex
 10
610.9555311171675
 20
337.4906075687359
 30
0.0
  0
VERTEX
  5
13E
330
13B
100
AcDbEntity
  8
_U+56FE_U+5C42 1
370
     0
100
AcDbVertex
100
AcDb2dVertex
 10
610.9555311171675
 20
334.6647477788188
 30
0.0
  0
VERTEX
  5
13F
330
13B
100
AcDbEntity
  8
_U+56FE_U+5C42 1
370
     0
100
AcDbVertex
100
AcDb2dVertex
 10
610.4632653302627
 20
334.6647477788188
 30
0.0
  0
VERTEX
  5
140
330
13B
100
AcDbEntity
  8
_U+56FE_U+5C42 1
370
     0
100
AcDbVertex
100
AcDb2dVertex
 10
610.4632653302627
 20
337.4906075687359
 30
0.0
  0
VERTEX
  5
141
330
13B
100
AcDbEntity
  8
_U+56FE_U+5C42 1
370
     0
100
AcDbVertex
100
AcDb2dVertex
 10
609.5892212302183
 20
337.4906075687359
 30
0.0
  0
VERTEX
  5
142
330
13B
100
AcDbEntity
  8
_U+56FE_U+5C42 1
370
     0
100
AcDbVertex
100
AcDb2dVertex
 10
609.5892212302183
 20
337.9106415212642
 30
0.0
  0
VERTEX
  5
143
330
13B
100
AcDbEntity
  8
_U+56FE_U+5C42 1
370
     0
100
AcDbVertex
100
AcDb2dVertex
 10
611.8339843417536
 20
337.9106415212642
 30
0.0
  0
VERTEX
  5
144
330
13B
100
AcDbEntity
  8
_U+56FE_U+5C42 1
370
     0
100
AcDbVertex
100
AcDb2dVertex
 10
611.8339843417536
 20
337.4906075687359
 30
0.0
  0
SEQEND
  5
145
330
13B
100
AcDbEntity
  8
_U+56FE_U+5C42 1
370
     0
  0
HATCH
  5
146
330
10F
100
AcDbEntity
  8
_U+56FE_U+5C42 1
 62
    18
420
   262144
100
AcDbHatch
 10
0.0
 20
0.0
 30
0.0
210
0.0
220
0.0
230
1.0
  2
SOLID
 70
     1
 71
     0
 91
        1
 92
        1
 93
        8
 72
     1
 10
611.8339843417536
 20
337.4906075687359
 11
610.9555311171675
 21
337.4906075687359
 72
     1
 10
610.9555311171675
 20
337.4906075687359
 11
610.9555311171675
 21
334.6647477788188
 72
     1
 10
610.9555311171675
 20
334.6647477788188
 11
610.4632653302627
 21
334.6647477788188
 72
     1
 10
610.4632653302627
 20
334.6647477788188
 11
610.4632653302627
 21
337.4906075687359
 72
     1
 10
610.4632653302627
 20
337.4906075687359
 11
609.5892212302183
 21
337.4906075687359
 72
     1
 10
609.5892212302183
 20
337.4906075687359
 11
609.5892212302183
 21
337.9106415212642
 72
     1
 10
609.5892212302183
 20
337.9106415212642
 11
611.8339843417536
 21
337.9106415212642
 72
     1
 10
611.8339843417536
 20
337.9106415212642
 11
611.8339843417536
 21
337.4906075687359
 97
        0
 75
     2
 76
     1
 98
        0
  0
SPLINE
  5
147
330
10F
100
AcDbEntity
  8
_U+56FE_U+5C42 1
370
     0
100
AcDbSpline
210
0.0
220
0.0
230
1.0
 70
    11
 71
     3
 72
    17
 73
    13
 74
     0
 42
0.0000000001
 43
0.0000000001
 12
1.0
 22
0.0
 32
0.0
 13
1.0
 23
0.0
 33
0.0
 40
0.0
 40
0.0
 40
0.0
 40
0.0
 40
1.0
 40
1.0
 40
1.0
 40
2.0
 40
2.0
 40
2.0
 40
3.0
 40
3.0
 40
3.0
 40
4.0
 40
4.0
 40
4.0
 40
4.0
 10
614.7779827333236
 20
336.3194662827581
 30
0.0
 10
614.7779827333236
 20
335.1908600805802
 30
0.0
 10
614.1710797083679
 20
334.6180629307455
 30
0.0
 10
613.3821057759261
 20
334.6180629307455
 30
0.0
 10
612.5547465239528
 20
334.6180629307455
 30
0.0
 10
612.0243547777844
 20
335.2885092211346
 30
0.0
 10
612.0243547777844
 20
336.2686316704113
 30
0.0
 10
612.0243547777844
 20
337.2911595233554
 30
0.0
 10
612.5928724832125
 20
337.9614761336113
 30
0.0
 10
613.4243814994595
 20
337.9614761336113
 30
0.0
 10
614.2857169464149
 20
337.9614761336113
 30
0.0
 10
614.7779827333236
 20
337.2529038839619
 30
0.0
 10
614.7779827333236
 20
336.3194662827581
 30
0.0
  0
SPLINE
  5
148
330
10F
100
AcDbEntity
  8
_U+56FE_U+5C42 1
370
     0
100
AcDbSpline
210
0.0
220
0.0
230
1.0
 70
    11
 71
     3
 72
    17
 73
    13
 74
     0
 42
0.0000000001
 43
0.0000000001
 12
1.0
 22
0.0
 32
0.0
 13
1.0
 23
0.0
 33
0.0
 40
0.0
 40
0.0
 40
0.0
 40
0.0
 40
1.0
 40
1.0
 40
1.0
 40
2.0
 40
2.0
 40
2.0
 40
3.0
 40
3.0
 40
3.0
 40
4.0
 40
4.0
 40
4.0
 40
4.0
 10
612.542037870867
 20
336.2813403234983
 30
0.0
 10
612.542037870867
 20
335.6236026861958
 30
0.0
 10
612.8390053766688
 20
335.02110878578
 30
0.0
 10
613.3989641932848
 20
335.02110878578
 30
0.0
 10
613.967481898709
 20
335.02110878578
 30
0.0
 10
614.2602996402403
 20
335.6108940331094
 30
0.0
 10
614.2602996402403
 20
336.3024781852647
 30
0.0
 10
614.2602996402403
 20
336.9219601831738
 30
0.0
 10
613.9887494406133
 20
337.5584302785757
 30
0.0
 10
613.4075230820969
 20
337.5584302785757
 30
0.0
 10
612.8091789459525
 20
337.5584302785757
 30
0.0
 10
612.542037870867
 20
336.9178104189005
 30
0.0
 10
612.542037870867
 20
336.2813403234983
 30
0.0
  0
HATCH
  5
149
330
10F
100
AcDbEntity
  8
_U+56FE_U+5C42 1
 62
    18
420
   262144
100
AcDbHatch
 10
0.0
 20
0.0
 30
0.0
210
0.0
220
0.0
230
1.0
  2
SOLID
 70
     1
 71
     0
 91
        2
 92
        1
 93
        1
 72
     4
 94
        3
 73
     0
 74
     1
 95
       17
 96
       13
 40
0.0
 40
0.0
 40
0.0
 40
0.0
 40
1.0
 40
1.0
 40
1.0
 40
2.0
 40
2.0
 40
2.0
 40
3.0
 40
3.0
 40
3.0
 40
4.0
 40
4.0
 40
4.0
 40
4.0
 10
614.7779827333236
 20
336.3194662827581
 10
614.7779827333236
 20
335.1908600805802
 10
614.1710797083679
 20
334.6180629307455
 10
613.3821057759261
 20
334.6180629307455
 10
612.5547465239528
 20
334.6180629307455
 10
612.0243547777844
 20
335.2885092211346
 10
612.0243547777844
 20
336.2686316704113
 10
612.0243547777844
 20
337.2911595233554
 10
612.5928724832125
 20
337.9614761336113
 10
613.4243814994595
 20
337.9614761336113
 10
614.2857169464149
 20
337.9614761336113
 10
614.7779827333236
 20
337.2529038839619
 10
614.7779827333236
 20
336.3194662827581
 97
        0
 97
        0
 92
        1
 93
        1
 72
     4
 94
        3
 73
     0
 74
     1
 95
       17
 96
       13
 40
0.0
 40
0.0
 40
0.0
 40
0.0
 40
1.0
 40
1.0
 40
1.0
 40
2.0
 40
2.0
 40
2.0
 40
3.0
 40
3.0
 40
3.0
 40
4.0
 40
4.0
 40
4.0
 40
4.0
 10
612.542037870867
 20
336.2813403234983
 10
612.542037870867
 20
335.6236026861958
 10
612.8390053766688
 20
335.02110878578
 10
613.3989641932848
 20
335.02110878578
 10
613.967481898709
 20
335.02110878578
 10
614.2602996402403
 20
335.6108940331094
 10
614.2602996402403
 20
336.3024781852647
 10
614.2602996402403
 20
336.9219601831738
 10
613.9887494406133
 20
337.5584302785757
 10
613.4075230820969
 20
337.5584302785757
 10
612.8091789459525
 20
337.5584302785757
 10
612.542037870867
 20
336.9178104189005
 10
612.542037870867
 20
336.2813403234983
 97
        0
 97
        0
 75
     2
 76
     1
 98
        0
  0
SPLINE
  5
14A
330
10F
100
AcDbEntity
  8
_U+56FE_U+5C42 1
370
     0
100
AcDbSpline
210
0.0
220
0.0
230
1.0
 70
    11
 71
     3
 72
    29
 73
    25
 74
     0
 42
0.0000000001
 43
0.0000000001
 12
1.0
 22
0.0
 32
0.0
 13
1.0
 23
0.0
 33
0.0
 40
0.0
 40
0.0
 40
0.0
 40
0.0
 40
1.0
 40
1.0
 40
1.0
 40
2.0
 40
2.0
 40
2.0
 40
3.0
 40
3.0
 40
3.0
 40
4.0
 40
4.0
 40
4.0
 40
5.0
 40
5.0
 40
5.0
 40
6.0
 40
6.0
 40
6.0
 40
7.0
 40
7.0
 40
7.0
 40
8.0
 40
8.0
 40
8.0
 40
8.0
 10
615.282179092518
 20
337.8723858818705
 30
0.0
 10
615.4772180133538
 20
337.9063620768575
 30
0.0
 10
615.736059559899
 20
337.9360588274375
 30
0.0
 10
616.0714123852277
 20
337.9360588274375
 30
0.0
 10
616.4700491157191
 20
337.9360588274375
 30
0.0
 10
616.7714257460617
 20
337.8512480201041
 30
0.0
 10
616.9664646669014
 20
337.6772172808969
 30
0.0
 10
617.1490542949239
 20
337.5203043193163
 30
0.0
 10
617.2592824084327
 20
337.2741714258617
 30
0.0
 10
617.2592824084327
 20
336.9772039200609
 30
0.0
 10
617.2592824084327
 20
336.1879706273512
 30
0.0
 10
616.6313712018406
 20
335.9164204277232
 30
0.0
 10
616.0457357187857
 20
335.9164204277232
 30
0.0
 10
615.9440664940923
 20
335.9164204277232
 30
0.0
 10
615.8506967979455
 20
335.9206998721302
 30
0.0
 10
615.770035754885
 20
335.9376879696238
 30
0.0
 10
615.770035754885
 20
335.9376879696238
 30
0.0
 10
615.770035754885
 20
334.6647477788188
 30
0.0
 10
615.770035754885
 20
334.6647477788188
 30
0.0
 10
615.770035754885
 20
334.6647477788188
 30
0.0
 10
615.282179092518
 20
334.6647477788188
 30
0.0
 10
615.282179092518
 20
334.6647477788188
 30
0.0
 10
615.282179092518
 20
334.6647477788188
 30
0.0
 10
615.282179092518
 20
337.8723858818705
 30
0.0
 10
615.282179092518
 20
337.8723858818705
 30
0.0
  0
SPLINE
  5
14B
330
10F
100
AcDbEntity
  8
_U+56FE_U+5C42 1
370
     0
100
AcDbSpline
210
0.0
220
0.0
230
1.0
 70
    11
 71
     3
 72
    20
 73
    16
 74
     0
 42
0.0000000001
 43
0.0000000001
 12
1.0
 22
0.0
 32
0.0
 13
1.0
 23
0.0
 33
0.0
 40
0.0
 40
0.0
 40
0.0
 40
0.0
 40
1.0
 40
1.0
 40
1.0
 40
2.0
 40
2.0
 40
2.0
 40
3.0
 40
3.0
 40
3.0
 40
4.0
 40
4.0
 40
4.0
 40
5.0
 40
5.0
 40
5.0
 40
5.0
 10
615.770035754885
 20
336.3321749358448
 30
0.0
 10
615.8421379091309
 20
336.3110370740781
 30
0.0
 10
615.9313578410066
 20
336.3067576296714
 30
0.0
 10
616.0457357187857
 20
336.3067576296714
 30
0.0
 10
616.4957257821578
 20
336.3067576296714
 30
0.0
 10
616.7672759817881
 20
336.540181870039
 30
0.0
 10
616.7672759817881
 20
336.9559363781606
 30
0.0
 10
616.7672759817881
 20
337.3505530245154
 30
0.0
 10
616.4957257821578
 20
337.5500010698963
 30
0.0
 10
616.1009794556722
 20
337.5500010698963
 30
0.0
 10
615.948216258366
 20
337.5500010698963
 30
0.0
 10
615.8335790203188
 20
337.5330129724027
 30
0.0
 10
615.770035754885
 20
337.5203043193163
 30
0.0
 10
615.770035754885
 20
337.5203043193163
 30
0.0
 10
615.770035754885
 20
336.3321749358448
 30
0.0
 10
615.770035754885
 20
336.3321749358448
 30
0.0
  0
HATCH
  5
14C
330
10F
100
AcDbEntity
  8
_U+56FE_U+5C42 1
 62
    18
420
   262144
100
AcDbHatch
 10
0.0
 20
0.0
 30
0.0
210
0.0
220
0.0
230
1.0
  2
SOLID
 70
     1
 71
     0
 91
        2
 92
        1
 93
        1
 72
     4
 94
        3
 73
     0
 74
     1
 95
       29
 96
       25
 40
0.0
 40
0.0
 40
0.0
 40
0.0
 40
1.0
 40
1.0
 40
1.0
 40
2.0
 40
2.0
 40
2.0
 40
3.0
 40
3.0
 40
3.0
 40
4.0
 40
4.0
 40
4.0
 40
5.0
 40
5.0
 40
5.0
 40
6.0
 40
6.0
 40
6.0
 40
7.0
 40
7.0
 40
7.0
 40
8.0
 40
8.0
 40
8.0
 40
8.0
 10
615.282179092518
 20
337.8723858818705
 10
615.4772180133538
 20
337.9063620768575
 10
615.736059559899
 20
337.9360588274375
 10
616.0714123852277
 20
337.9360588274375
 10
616.4700491157191
 20
337.9360588274375
 10
616.7714257460617
 20
337.8512480201041
 10
616.9664646669014
 20
337.6772172808969
 10
617.1490542949239
 20
337.5203043193163
 10
617.2592824084327
 20
337.2741714258617
 10
617.2592824084327
 20
336.9772039200609
 10
617.2592824084327
 20
336.1879706273512
 10
616.6313712018406
 20
335.9164204277232
 10
616.0457357187857
 20
335.9164204277232
 10
615.9440664940923
 20
335.9164204277232
 10
615.8506967979455
 20
335.9206998721302
 10
615.770035754885
 20
335.9376879696238
 10
615.770035754885
 20
335.9376879696238
 10
615.770035754885
 20
334.6647477788188
 10
615.770035754885
 20
334.6647477788188
 10
615.770035754885
 20
334.6647477788188
 10
615.282179092518
 20
334.6647477788188
 10
615.282179092518
 20
334.6647477788188
 10
615.282179092518
 20
334.6647477788188
 10
615.282179092518
 20
337.8723858818705
 10
615.282179092518
 20
337.8723858818705
 97
        0
 97
        0
 92
        1
 93
        1
 72
     4
 94
        3
 73
     0
 74
     1
 95
       20
 96
       16
 40
0.0
 40
0.0
 40
0.0
 40
0.0
 40
1.0
 40
1.0
 40
1.0
 40
2.0
 40
2.0
 40
2.0
 40
3.0
 40
3.0
 40
3.0
 40
4.0
 40
4.0
 40
4.0
 40
5.0
 40
5.0
 40
5.0
 40
5.0
 10
615.770035754885
 20
336.3321749358448
 10
615.8421379091309
 20
336.3110370740781
 10
615.9313578410066
 20
336.3067576296714
 10
616.0457357187857
 20
336.3067576296714
 10
616.4957257821578
 20
336.3067576296714
 10
616.7672759817881
 20
336.540181870039
 10
616.7672759817881
 20
336.9559363781606
 10
616.7672759817881
 20
337.3505530245154
 10
616.4957257821578
 20
337.5500010698963
 10
616.1009794556722
 20
337.5500010698963
 10
615.948216258366
 20
337.5500010698963
 10
615.8335790203188
 20
337.5330129724027
 10
615.770035754885
 20
337.5203043193163
 10
615.770035754885
 20
337.5203043193163
 10
615.770035754885
 20
336.3321749358448
 10
615.770035754885
 20
336.3321749358448
 97
        0
 97
        0
 75
     2
 76
     1
 98
        0
  0
ENDBLK
  5
112
330
10F
100
AcDbEntity
  8
0
100
AcDbBlockEnd
  0
BLOCK
  5
1FE
330
1FC
100
AcDbEntity
  8
0
100
AcDbBlockBegin
  2
block 9
 70
     0
 10
0.0
 20
0.0
 30
0.0
  3
block 9
  1

  0
INSERT
  5
201
330
1FC
100
AcDbEntity
  8
_U+56FE_U+5C42 1
100
AcDbBlockReference
  2
block 10
 10
0.0
 20
0.0
 30
0.0
  0
INSERT
  5
206
330
1FC
100
AcDbEntity
  8
_U+56FE_U+5C42 1
100
AcDbBlockReference
  2
block 11
 10
0.0
 20
0.0
 30
0.0
  0
INSERT
  5
20B
330
1FC
100
AcDbEntity
  8
_U+56FE_U+5C42 1
100
AcDbBlockReference
  2
block 12
 10
0.0
 20
0.0
 30
0.0
  0
POLYLINE
  5
20F
330
1FC
100
AcDbEntity
  8
_U+56FE_U+5C42 1
 62
    18
420
   262144
370
    13
100
AcDb2dPolyline
 66
     1
 10
0.0
 20
0.0
 30
0.0
  0
VERTEX
  5
210
330
20F
100
AcDbEntity
  8
_U+56FE_U+5C42 1
 62
    18
420
   262144
370
    13
100
AcDbVertex
100
AcDb2dVertex
 10
622.612561141753
 20
386.9657329979941
 30
0.0
  0
VERTEX
  5
211
330
20F
100
AcDbEntity
  8
_U+56FE_U+5C42 1
 62
    18
420
   262144
370
    13
100
AcDbVertex
100
AcDb2dVertex
 10
539.3490970342513
 20
386.9657329979941
 30
0.0
  0
SEQEND
  5
212
330
20F
100
AcDbEntity
  8
_U+56FE_U+5C42 1
 62
    18
420
   262144
370
    13
  0
POLYLINE
  5
213
330
1FC
100
AcDbEntity
  8
_U+56FE_U+5C42 1
 62
    18
420
   262144
370
    13
100
AcDb2dPolyline
 66
     1
 10
0.0
 20
0.0
 30
0.0
  0
VERTEX
  5
214
330
213
100
AcDbEntity
  8
_U+56FE_U+5C42 1
 62
    18
420
   262144
370
    13
100
AcDbVertex
100
AcDb2dVertex
 10
625.8077602226313
 20
485.5145943133945
 30
0.0
  0
VERTEX
  5
215
330
213
100
AcDbEntity
  8
_U+56FE_U+5C42 1
 62
    18
420
   262144
370
    13
100
AcDbVertex
100
AcDb2dVertex
 10
625.8826768551855
 20
390.7959467987758
 30
0.0
  0
SEQEND
  5
216
330
213
100
AcDbEntity
  8
_U+56FE_U+5C42 1
 62
    18
420
   262144
370
    13
  0
POLYLINE
  5
217
330
1FC
100
AcDbEntity
  8
_U+56FE_U+5C42 1
 62
    18
420
   262144
370
    13
100
AcDb2dPolyline
 66
     1
 10
0.0
 20
0.0
 30
0.0
  0
VERTEX
  5
218
330
217
100
AcDbEntity
  8
_U+56FE_U+5C42 1
 62
    18
420
   262144
370
    13
100
AcDbVertex
100
AcDb2dVertex
 10
540.8404659770157
 20
489.9055788566654
 30
0.0
  0
VERTEX
  5
219
330
217
100
AcDbEntity
  8
_U+56FE_U+5C42 1
 62
    18
420
   262144
370
    13
100
AcDbVertex
100
AcDb2dVertex
 10
622.72740792702
 20
489.9055788566654
 30
0.0
  0
SEQEND
  5
21A
330
217
100
AcDbEntity
  8
_U+56FE_U+5C42 1
 62
    18
420
   262144
370
    13
  0
POLYLINE
  5
21B
330
1FC
100
AcDbEntity
  8
_U+56FE_U+5C42 1
 62
    18
420
   262144
370
    13
100
AcDb2dPolyline
 66
     1
 10
0.0
 20
0.0
 30
0.0
  0
VERTEX
  5
21C
330
21B
100
AcDbEntity
  8
_U+56FE_U+5C42 1
 62
    18
420
   262144
370
    13
100
AcDbVertex
100
AcDb2dVertex
 10
536.7221804421644
 20
390.0425819533134
 30
0.0
  0
VERTEX
  5
21D
330
21B
100
AcDbEntity
  8
_U+56FE_U+5C42 1
 62
    18
420
   262144
370
    13
100
AcDbVertex
100
AcDb2dVertex
 10
536.647263809614
 20
485.5145943133945
 30
0.0
  0
SEQEND
  5
21E
330
21B
100
AcDbEntity
  8
_U+56FE_U+5C42 1
 62
    18
420
   262144
370
    13
  0
INSERT
  5
220
330
1FC
100
AcDbEntity
  8
_U+56FE_U+5C42 1
100
AcDbBlockReference
  2
block 13
 10
0.0
 20
0.0
 30
0.0
  0
INSERT
  5
228
330
1FC
100
AcDbEntity
  8
_U+56FE_U+5C42 1
100
AcDbBlockReference
  2
block 14
 10
0.0
 20
0.0
 30
0.0
  0
INSERT
  5
230
330
1FC
100
AcDbEntity
  8
_U+56FE_U+5C42 1
100
AcDbBlockReference
  2
block 15
 10
0.0
 20
0.0
 30
0.0
  0
INSERT
  5
238
330
1FC
100
AcDbEntity
  8
_U+56FE_U+5C42 1
100
AcDbBlockReference
  2
block 16
 10
0.0
 20
0.0
 30
0.0
  0
INSERT
  5
240
330
1FC
100
AcDbEntity
  8
_U+56FE_U+5C42 1
100
AcDbBlockReference
  2
block 17
 10
0.0
 20
0.0
 30
0.0
  0
INSERT
  5
248
330
1FC
100
AcDbEntity
  8
_U+56FE_U+5C42 1
100
AcDbBlockReference
  2
block 18
 10
0.0
 20
0.0
 30
0.0
  0
INSERT
  5
250
330
1FC
100
AcDbEntity
  8
_U+56FE_U+5C42 1
100
AcDbBlockReference
  2
block 19
 10
0.0
 20
0.0
 30
0.0
  0
INSERT
  5
258
330
1FC
100
AcDbEntity
  8
_U+56FE_U+5C42 1
100
AcDbBlockReference
  2
block 20
 10
0.0
 20
0.0
 30
0.0
  0
INSERT
  5
260
330
1FC
100
AcDbEntity
  8
_U+56FE_U+5C42 1
100
AcDbBlockReference
  2
block 21
 10
0.0
 20
0.0
 30
0.0
  0
INSERT
  5
268
330
1FC
100
AcDbEntity
  8
_U+56FE_U+5C42 1
100
AcDbBlockReference
  2
block 22
 10
0.0
 20
0.0
 30
0.0
  0
INSERT
  5
270
330
1FC
100
AcDbEntity
  8
_U+56FE_U+5C42 1
100
AcDbBlockReference
  2
block 23
 10
0.0
 20
0.0
 30
0.0
  0
INSERT
  5
278
330
1FC
100
AcDbEntity
  8
_U+56FE_U+5C42 1
100
AcDbBlockReference
  2
block 24
 10
0.0
 20
0.0
 30
0.0
  0
INSERT
  5
280
330
1FC
100
AcDbEntity
  8
_U+56FE_U+5C42 1
100
AcDbBlockReference
  2
block 25
 10
0.0
 20
0.0
 30
0.0
  0
INSERT
  5
324
330
1FC
100
AcDbEntity
  8
_U+56FE_U+5C42 1
100
AcDbBlockReference
  2
block 46
 10
0.0
 20
0.0
 30
0.0
  0
INSERT
  5
32C
330
1FC
100
AcDbEntity
  8
_U+56FE_U+5C42 1
100
AcDbBlockReference
  2
block 47
 10
0.0
 20
0.0
 30
0.0
  0
INSERT
  5
334
330
1FC
100
AcDbEntity
  8
_U+56FE_U+5C42 1
100
AcDbBlockReference
  2
block 48
 10
0.0
 20
0.0
 30
0.0
  0
INSERT
  5
33C
330
1FC
100
AcDbEntity
  8
_U+56FE_U+5C42 1
100
AcDbBlockReference
  2
block 49
 10
0.0
 20
0.0
 30
0.0
  0
POLYLINE
  5
343
330
1FC
100
AcDbEntity
  8
_U+56FE_U+5C42 1
 62
    18
420
   262144
370
    13
100
AcDb2dPolyline
 66
     1
 10
0.0
 20
0.0
 30
0.0
  0
VERTEX
  5
344
330
343
100
AcDbEntity
  8
_U+56FE_U+5C42 1
 62
    18
420
   262144
370
    13
100
AcDbVertex
100
AcDb2dVertex
 10
540.8404659770157
 20
489.9055788566654
 30
0.0
  0
VERTEX
  5
345
330
343
100
AcDbEntity
  8
_U+56FE_U+5C42 1
 62
    18
420
   262144
370
    13
100
AcDbVertex
100
AcDb2dVertex
 10
536.647263809614
 20
485.5145943133945
 30
0.0
  0
SEQEND
  5
346
330
343
100
AcDbEntity
  8
_U+56FE_U+5C42 1
 62
    18
420
   262144
370
    13
  0
POLYLINE
  5
347
330
1FC
100
AcDbEntity
  8
_U+56FE_U+5C42 1
 62
    18
420
   262144
370
    13
100
AcDb2dPolyline
 66
     1
 10
0.0
 20
0.0
 30
0.0
  0
VERTEX
  5
348
330
347
100
AcDbEntity
  8
_U+56FE_U+5C42 1
 62
    18
420
   262144
370
    13
100
AcDbVertex
100
AcDb2dVertex
 10
622.72740792702
 20
490.0193889769228
 30
0.0
  0
VERTEX
  5
349
330
347
100
AcDbEntity
  8
_U+56FE_U+5C42 1
 62
    18
420
   262144
370
    13
100
AcDbVertex
100
AcDb2dVertex
 10
625.8077602226313
 20
485.5145943133945
 30
0.0
  0
SEQEND
  5
34A
330
347
100
AcDbEntity
  8
_U+56FE_U+5C42 1
 62
    18
420
   262144
370
    13
  0
POLYLINE
  5
34B
330
1FC
100
AcDbEntity
  8
_U+56FE_U+5C42 1
 62
    18
420
   262144
370
    13
100
AcDb2dPolyline
 66
     1
 10
0.0
 20
0.0
 30
0.0
  0
VERTEX
  5
34C
330
34B
100
AcDbEntity
  8
_U+56FE_U+5C42 1
 62
    18
420
   262144
370
    13
100
AcDbVertex
100
AcDb2dVertex
 10
622.612561141753
 20
386.9657329979941
 30
0.0
  0
VERTEX
  5
34D
330
34B
100
AcDbEntity
  8
_U+56FE_U+5C42 1
 62
    18
420
   262144
370
    13
100
AcDbVertex
100
AcDb2dVertex
 10
625.8826768551855
 20
390.7959467987758
 30
0.0
  0
SEQEND
  5
34E
330
34B
100
AcDbEntity
  8
_U+56FE_U+5C42 1
 62
    18
420
   262144
370
    13
  0
POLYLINE
  5
34F
330
1FC
100
AcDbEntity
  8
_U+56FE_U+5C42 1
 62
    18
420
   262144
370
    13
100
AcDb2dPolyline
 66
     1
 10
0.0
 20
0.0
 30
0.0
  0
VERTEX
  5
350
330
34F
100
AcDbEntity
  8
_U+56FE_U+5C42 1
 62
    18
420
   262144
370
    13
100
AcDbVertex
100
AcDb2dVertex
 10
539.3490970342513
 20
386.9657329979941
 30
0.0
  0
VERTEX
  5
351
330
34F
100
AcDbEntity
  8
_U+56FE_U+5C42 1
 62
    18
420
   262144
370
    13
100
AcDbVertex
100
AcDb2dVertex
 10
536.7221804421644
 20
390.0425819533134
 30
0.0
  0
SEQEND
  5
352
330
34F
100
AcDbEntity
  8
_U+56FE_U+5C42 1
 62
    18
420
   262144
370
    13
  0
POLYLINE
  5
353
330
1FC
100
AcDbEntity
  8
_U+56FE_U+5C42 1
 62
    18
420
   262144
370
    13
100
AcDb2dPolyline
 66
     1
 10
0.0
 20
0.0
 30
0.0
  0
VERTEX
  5
354
330
353
100
AcDbEntity
  8
_U+56FE_U+5C42 1
 62
    18
420
   262144
370
    13
100
AcDbVertex
100
AcDb2dVertex
 10
545.7548911679075
 20
483.1509957950758
 30
0.0
  0
VERTEX
  5
355
330
353
100
AcDbEntity
  8
_U+56FE_U+5C42 1
 62
    18
420
   262144
370
    13
100
AcDbVertex
100
AcDb2dVertex
 10
527.0393378090706
 20
483.1509957950758
 30
0.0
  0
SEQEND
  5
356
330
353
100
AcDbEntity
  8
_U+56FE_U+5C42 1
 62
    18
420
   262144
370
    13
  0
POLYLINE
  5
357
330
1FC
100
AcDbEntity
  8
_U+56FE_U+5C42 1
 62
    18
420
   262144
370
    13
100
AcDb2dPolyline
 66
     1
 10
0.0
 20
0.0
 30
0.0
  0
VERTEX
  5
358
330
357
100
AcDbEntity
  8
_U+56FE_U+5C42 1
 62
    18
420
   262144
370
    13
100
AcDbVertex
100
AcDb2dVertex
 10
581.227512016121
 20
447.0815222461684
 30
0.0
  0
VERTEX
  5
359
330
357
100
AcDbEntity
  8
_U+56FE_U+5C42 1
 62
    18
420
   262144
370
    13
100
AcDbVertex
100
AcDb2dVertex
 10
527.0393378090706
 20
447.0815222461684
 30
0.0
  0
SEQEND
  5
35A
330
357
100
AcDbEntity
  8
_U+56FE_U+5C42 1
 62
    18
420
   262144
370
    13
  0
POLYLINE
  5
35B
330
1FC
100
AcDbEntity
  8
_U+56FE_U+5C42 1
 62
    18
420
   262144
370
    13
100
AcDb2dPolyline
 66
     1
 10
0.0
 20
0.0
 30
0.0
  0
VERTEX
  5
35C
330
35B
100
AcDbEntity
  8
_U+56FE_U+5C42 1
 62
    18
420
   262144
370
    13
100
AcDbVertex
100
AcDb2dVertex
 10
527.0393378090706
 20
483.1509957950758
 30
0.0
  0
VERTEX
  5
35D
330
35B
100
AcDbEntity
  8
_U+56FE_U+5C42 1
 62
    18
420
   262144
370
    13
100
AcDbVertex
100
AcDb2dVertex
 10
527.0393378090706
 20
447.0815222461684
 30
0.0
  0
SEQEND
  5
35E
330
35B
100
AcDbEntity
  8
_U+56FE_U+5C42 1
 62
    18
420
   262144
370
    13
  0
INSERT
  5
360
330
1FC
100
AcDbEntity
  8
_U+56FE_U+5C42 1
100
AcDbBlockReference
  2
block 50
 10
0.0
 20
0.0
 30
0.0
  0
POLYLINE
  5
366
330
1FC
100
AcDbEntity
  8
_U+56FE_U+5C42 1
 62
    18
420
   262144
370
    13
100
AcDb2dPolyline
 66
     1
 10
0.0
 20
0.0
 30
0.0
  0
VERTEX
  5
367
330
366
100
AcDbEntity
  8
_U+56FE_U+5C42 1
 62
    18
420
   262144
370
    13
100
AcDbVertex
100
AcDb2dVertex
 10
570.5079666554831
 20
441.5616724487156
 30
0.0
  0
VERTEX
  5
368
330
366
100
AcDbEntity
  8
_U+56FE_U+5C42 1
 62
    18
420
   262144
370
    13
100
AcDbVertex
100
AcDb2dVertex
 10
592.1211093409113
 20
452.9614437017307
 30
0.0
  0
SEQEND
  5
369
330
366
100
AcDbEntity
  8
_U+56FE_U+5C42 1
 62
    18
420
   262144
370
    13
  0
POLYLINE
  5
36A
330
1FC
100
AcDbEntity
  8
_U+56FE_U+5C42 1
  6
AI-Linetype-1
 62
    18
420
   262144
370
    13
100
AcDb2dPolyline
 66
     1
 10
0.0
 20
0.0
 30
0.0
  0
VERTEX
  5
36B
330
36A
100
AcDbEntity
  8
_U+56FE_U+5C42 1
  6
AI-Linetype-1
 62
    18
420
   262144
370
    13
100
AcDbVertex
100
AcDb2dVertex
 10
569.3651647151335
 20
441.1938995769056
 30
0.0
  0
VERTEX
  5
36C
330
36A
100
AcDbEntity
  8
_U+56FE_U+5C42 1
  6
AI-Linetype-1
 62
    18
420
   262144
370
    13
100
AcDbVertex
100
AcDb2dVertex
 10
532.6500680782763
 20
421.0170508334292
 30
0.0
  0
SEQEND
  5
36E
330
36A
100
AcDbEntity
  8
_U+56FE_U+5C42 1
  6
AI-Linetype-1
 62
    18
420
   262144
370
    13
  0
POLYLINE
  5
36F
330
1FC
100
AcDbEntity
  8
_U+56FE_U+5C42 1
  6
AI-Linetype-2
 62
    18
420
   262144
370
    13
100
AcDb2dPolyline
 66
     1
 10
0.0
 20
0.0
 30
0.0
  0
VERTEX
  5
370
330
36F
100
AcDbEntity
  8
_U+56FE_U+5C42 1
  6
AI-Linetype-2
 62
    18
420
   262144
370
    13
100
AcDbVertex
100
AcDb2dVertex
 10
532.6500680782763
 20
421.0170508334292
 30
0.0
  0
VERTEX
  5
371
330
36F
100
AcDbEntity
  8
_U+56FE_U+5C42 1
  6
AI-Linetype-2
 62
    18
420
   262144
370
    13
100
AcDbVertex
100
AcDb2dVertex
 10
527.1901191523916
 20
421.0170508334292
 30
0.0
  0
SEQEND
  5
373
330
36F
100
AcDbEntity
  8
_U+56FE_U+5C42 1
  6
AI-Linetype-2
 62
    18
420
   262144
370
    13
  0
INSERT
  5
375
330
1FC
100
AcDbEntity
  8
_U+56FE_U+5C42 1
100
AcDbBlockReference
  2
block 51
 10
0.0
 20
0.0
 30
0.0
  0
ENDBLK
  5
1FF
330
1FC
100
AcDbEntity
  8
0
100
AcDbBlockEnd
  0
BLOCK
  5
202
330
200
100
AcDbEntity
  8
0
100
AcDbBlockBegin
  2
block 10
 70
     0
 10
0.0
 20
0.0
 30
0.0
  3
block 10
  1

  0
SPLINE
  5
204
330
200
100
AcDbEntity
  8
_U+56FE_U+5C42 1
 62
    18
420
   262144
370
    13
100
AcDbSpline
210
0.0
220
0.0
230
1.0
 70
    11
 71
     3
 72
    29
 73
    25
 74
     0
 42
0.0000000001
 43
0.0000000001
 12
1.0
 22
0.0
 32
0.0
 13
1.0
 23
0.0
 33
0.0
 40
0.0
 40
0.0
 40
0.0
 40
0.0
 40
1.0
 40
1.0
 40
1.0
 40
2.0
 40
2.0
 40
2.0
 40
3.0
 40
3.0
 40
3.0
 40
4.0
 40
4.0
 40
4.0
 40
5.0
 40
5.0
 40
5.0
 40
6.0
 40
6.0
 40
6.0
 40
7.0
 40
7.0
 40
7.0
 40
8.0
 40
8.0
 40
8.0
 40
8.0
 10
546.1036800958441
 20
393.7203160595907
 30
0.0
 10
546.1036800958441
 20
393.7203160595907
 30
0.0
 10
616.3513439364223
 20
393.7203160595907
 30
0.0
 10
616.3513439364223
 20
393.7203160595907
 30
0.0
 10
617.8435252229673
 20
393.7203160595907
 30
0.0
 10
619.0531771610557
 20
394.9299679976686
 30
0.0
 10
619.0531771610557
 20
396.4221492842281
 30
0.0
 10
619.0531771610557
 20
396.4221492842281
 30
0.0
 10
619.0531771610345
 20
480.4491625704353
 30
0.0
 10
619.0531771610345
 20
480.4491625704353
 30
0.0
 10
619.0531771610345
 20
481.9413438569838
 30
0.0
 10
617.8435252229499
 20
483.1509957950687
 30
0.0
 10
616.3513439363973
 20
483.1509957950687
 30
0.0
 10
616.3513439363973
 20
483.1509957950687
 30
0.0
 10
546.1036800958409
 20
483.1509957950758
 30
0.0
 10
546.1036800958409
 20
483.1509957950758
 30
0.0
 10
544.6114988092921
 20
483.1509957950687
 30
0.0
 10
543.4018468712036
 20
481.9413438569838
 30
0.0
 10
543.4018468712036
 20
480.4491625704314
 30
0.0
 10
543.4018468712036
 20
480.4491625704314
 30
0.0
 10
543.4018468711998
 20
396.4221492842281
 30
0.0
 10
543.4018468711998
 20
396.4221492842281
 30
0.0
 10
543.4018468712036
 20
394.9299679976686
 30
0.0
 10
544.6114988092921
 20
393.7203160595907
 30
0.0
 10
546.1036800958441
 20
393.7203160595907
 30
0.0
  0
ENDBLK
  5
203
330
200
100
AcDbEntity
  8
0
100
AcDbBlockEnd
  0
BLOCK
  5
207
330
205
100
AcDbEntity
  8
0
100
AcDbBlockBegin
  2
block 11
 70
     0
 10
0.0
 20
0.0
 30
0.0
  3
block 11
  1

  0
SPLINE
  5
209
330
205
100
AcDbEntity
  8
_U+56FE_U+5C42 1
 62
    18
420
   262144
370
    13
100
AcDbSpline
210
0.0
220
0.0
230
1.0
 70
    11
 71
     3
 72
    20
 73
    16
 74
     0
 42
0.0000000001
 43
0.0000000001
 12
1.0
 22
0.0
 32
0.0
 13
1.0
 23
0.0
 33
0.0
 40
0.0
 40
0.0
 40
0.0
 40
0.0
 40
1.0
 40
1.0
 40
1.0
 40
2.0
 40
2.0
 40
2.0
 40
3.0
 40
3.0
 40
3.0
 40
4.0
 40
4.0
 40
4.0
 40
5.0
 40
5.0
 40
5.0
 40
5.0
 10
565.827062635691
 20
447.0815222461684
 30
0.0
 10
565.827062635691
 20
455.5869555795171
 30
0.0
 10
572.7220786827686
 20
462.4819716265949
 30
0.0
 10
581.227512016121
 20
462.4819716265949
 30
0.0
 10
589.7329453494729
 20
462.4819716265949
 30
0.0
 10
596.6279613965471
 20
455.5869555795171
 30
0.0
 10
596.6279613965471
 20
447.0815222461684
 30
0.0
 10
596.6279613965471
 20
438.5760889128198
 30
0.0
 10
589.7329453494729
 20
431.6810728657385
 30
0.0
 10
581.227512016121
 20
431.6810728657385
 30
0.0
 10
572.7220786827686
 20
431.6810728657385
 30
0.0
 10
565.827062635691
 20
438.5760889128198
 30
0.0
 10
565.827062635691
 20
447.0815222461684
 30
0.0
 10
565.827062635691
 20
447.0815222461684
 30
0.0
 10
565.827062635691
 20
447.0815222461684
 30
0.0
 10
565.827062635691
 20
447.0815222461684
 30
0.0
  0
ENDBLK
  5
208
330
205
100
AcDbEntity
  8
0
100
AcDbBlockEnd
  0
BLOCK
  5
20C
330
20A
100
AcDbEntity
  8
0
100
AcDbBlockBegin
  2
block 12
 70
     0
 10
0.0
 20
0.0
 30
0.0
  3
block 12
  1

  0
SPLINE
  5
20E
330
20A
100
AcDbEntity
  8
_U+56FE_U+5C42 1
 62
    18
420
   262144
370
    13
100
AcDbSpline
210
0.0
220
0.0
230
1.0
 70
    11
 71
     3
 72
    20
 73
    16
 74
     0
 42
0.0000000001
 43
0.0000000001
 12
1.0
 22
0.0
 32
0.0
 13
1.0
 23
0.0
 33
0.0
 40
0.0
 40
0.0
 40
0.0
 40
0.0
 40
1.0
 40
1.0
 40
1.0
 40
2.0
 40
2.0
 40
2.0
 40
3.0
 40
3.0
 40
3.0
 40
4.0
 40
4.0
 40
4.0
 40
5.0
 40
5.0
 40
5.0
 40
5.0
 10
568.9341708440229
 20
447.0815222461684
 30
0.0
 10
568.9341708440229
 20
453.8709470999844
 30
0.0
 10
574.4380871623011
 20
459.3748634182592
 30
0.0
 10
581.227512016121
 20
459.3748634182592
 30
0.0
 10
588.0169368699402
 20
459.3748634182592
 30
0.0
 10
593.5208531882184
 20
453.8709470999844
 30
0.0
 10
593.5208531882184
 20
447.0815222461684
 30
0.0
 10
593.5208531882184
 20
440.2920973923489
 30
0.0
 10
588.0169368699402
 20
434.7881810740742
 30
0.0
 10
581.227512016121
 20
434.7881810740742
 30
0.0
 10
574.4380871623011
 20
434.7881810740742
 30
0.0
 10
568.9341708440229
 20
440.2920973923489
 30
0.0
 10
568.9341708440229
 20
447.0815222461684
 30
0.0
 10
568.9341708440229
 20
447.0815222461684
 30
0.0
 10
568.9341708440229
 20
447.0815222461684
 30
0.0
 10
568.9341708440229
 20
447.0815222461684
 30
0.0
  0
ENDBLK
  5
20D
330
20A
100
AcDbEntity
  8
0
100
AcDbBlockEnd
  0
BLOCK
  5
221
330
21F
100
AcDbEntity
  8
0
100
AcDbBlockBegin
  2
block 13
 70
     0
 10
0.0
 20
0.0
 30
0.0
  3
block 13
  1

  0
POLYLINE
  5
223
330
21F
100
AcDbEntity
  8
_U+56FE_U+5C42 1
 62
    18
420
   262144
370
    13
100
AcDb2dPolyline
 66
     1
 10
0.0
 20
0.0
 30
0.0
  0
VERTEX
  5
224
330
223
100
AcDbEntity
  8
_U+56FE_U+5C42 1
 62
    18
420
   262144
370
    13
100
AcDbVertex
100
AcDb2dVertex
 10
544.5343333094714
 20
482.4144836359143
 30
0.0
  0
VERTEX
  5
225
330
223
100
AcDbEntity
  8
_U+56FE_U+5C42 1
 62
    18
420
   262144
370
    13
100
AcDbVertex
100
AcDb2dVertex
 10
568.3171666198867
 20
455.4777608605099
 30
0.0
  0
SEQEND
  5
226
330
223
100
AcDbEntity
  8
_U+56FE_U+5C42 1
 62
    18
420
   262144
370
    13
  0
ENDBLK
  5
222
330
21F
100
AcDbEntity
  8
0
100
AcDbBlockEnd
  0
BLOCK
  5
229
330
227
100
AcDbEntity
  8
0
100
AcDbBlockBegin
  2
block 14
 70
     0
 10
0.0
 20
0.0
 30
0.0
  3
block 14
  1

  0
POLYLINE
  5
22B
330
227
100
AcDbEntity
  8
_U+56FE_U+5C42 1
 62
    18
420
   262144
370
    13
100
AcDb2dPolyline
 66
     1
 10
0.0
 20
0.0
 30
0.0
  0
VERTEX
  5
22C
330
22B
100
AcDbEntity
  8
_U+56FE_U+5C42 1
 62
    18
420
   262144
370
    13
100
AcDbVertex
100
AcDb2dVertex
 10
616.7882042845098
 20
481.6779714767666
 30
0.0
  0
VERTEX
  5
22D
330
22B
100
AcDbEntity
  8
_U+56FE_U+5C42 1
 62
    18
420
   262144
370
    13
100
AcDbVertex
100
AcDb2dVertex
 10
594.1378574123585
 20
455.4777608605099
 30
0.0
  0
SEQEND
  5
22E
330
22B
100
AcDbEntity
  8
_U+56FE_U+5C42 1
 62
    18
420
   262144
370
    13
  0
ENDBLK
  5
22A
330
227
100
AcDbEntity
  8
0
100
AcDbBlockEnd
  0
BLOCK
  5
231
330
22F
100
AcDbEntity
  8
0
100
AcDbBlockBegin
  2
block 15
 70
     0
 10
0.0
 20
0.0
 30
0.0
  3
block 15
  1

  0
POLYLINE
  5
233
330
22F
100
AcDbEntity
  8
_U+56FE_U+5C42 1
 62
    18
420
   262144
370
    13
100
AcDb2dPolyline
 66
     1
 10
0.0
 20
0.0
 30
0.0
  0
VERTEX
  5
234
330
233
100
AcDbEntity
  8
_U+56FE_U+5C42 1
 62
    18
420
   262144
370
    13
100
AcDbVertex
100
AcDb2dVertex
 10
544.5343333094714
 20
394.4568282187417
 30
0.0
  0
VERTEX
  5
235
330
233
100
AcDbEntity
  8
_U+56FE_U+5C42 1
 62
    18
420
   262144
370
    13
100
AcDbVertex
100
AcDb2dVertex
 10
568.3171666198867
 20
438.6852836318234
 30
0.0
  0
SEQEND
  5
236
330
233
100
AcDbEntity
  8
_U+56FE_U+5C42 1
 62
    18
420
   262144
370
    13
  0
ENDBLK
  5
232
330
22F
100
AcDbEntity
  8
0
100
AcDbBlockEnd
  0
BLOCK
  5
239
330
237
100
AcDbEntity
  8
0
100
AcDbBlockBegin
  2
block 16
 70
     0
 10
0.0
 20
0.0
 30
0.0
  3
block 16
  1

  0
POLYLINE
  5
23B
330
237
100
AcDbEntity
  8
_U+56FE_U+5C42 1
 62
    18
420
   262144
370
    13
100
AcDb2dPolyline
 66
     1
 10
0.0
 20
0.0
 30
0.0
  0
VERTEX
  5
23C
330
23B
100
AcDbEntity
  8
_U+56FE_U+5C42 1
 62
    18
420
   262144
370
    13
100
AcDbVertex
100
AcDb2dVertex
 10
616.7882042845271
 20
395.1933403778893
 30
0.0
  0
VERTEX
  5
23D
330
23B
100
AcDbEntity
  8
_U+56FE_U+5C42 1
 62
    18
420
   262144
370
    13
100
AcDbVertex
100
AcDb2dVertex
 10
594.1378574123585
 20
438.6852836318341
 30
0.0
  0
SEQEND
  5
23E
330
23B
100
AcDbEntity
  8
_U+56FE_U+5C42 1
 62
    18
420
   262144
370
    13
  0
ENDBLK
  5
23A
330
237
100
AcDbEntity
  8
0
100
AcDbBlockEnd
  0
BLOCK
  5
241
330
23F
100
AcDbEntity
  8
0
100
AcDbBlockBegin
  2
block 17
 70
     0
 10
0.0
 20
0.0
 30
0.0
  3
block 17
  1

  0
POLYLINE
  5
243
330
23F
100
AcDbEntity
  8
_U+56FE_U+5C42 1
 62
    18
420
   262144
370
    13
100
AcDb2dPolyline
 66
     1
 10
0.0
 20
0.0
 30
0.0
  0
VERTEX
  5
244
330
243
100
AcDbEntity
  8
_U+56FE_U+5C42 1
 62
    18
420
   262144
370
    13
100
AcDbVertex
100
AcDb2dVertex
 10
543.4018468711998
 20
400.0438619345396
 30
0.0
  0
VERTEX
  5
245
330
243
100
AcDbEntity
  8
_U+56FE_U+5C42 1
 62
    18
420
   262144
370
    13
100
AcDbVertex
100
AcDb2dVertex
 10
543.4018468711998
 20
400.0438619345396
 30
0.0
  0
SEQEND
  5
246
330
243
100
AcDbEntity
  8
_U+56FE_U+5C42 1
 62
    18
420
   262144
370
    13
  0
ENDBLK
  5
242
330
23F
100
AcDbEntity
  8
0
100
AcDbBlockEnd
  0
BLOCK
  5
249
330
247
100
AcDbEntity
  8
0
100
AcDbBlockBegin
  2
block 18
 70
     0
 10
0.0
 20
0.0
 30
0.0
  3
block 18
  1

  0
POLYLINE
  5
24B
330
247
100
AcDbEntity
  8
_U+56FE_U+5C42 1
 62
    18
420
   262144
370
    13
100
AcDb2dPolyline
 66
     1
 10
0.0
 20
0.0
 30
0.0
  0
VERTEX
  5
24C
330
24B
100
AcDbEntity
  8
_U+56FE_U+5C42 1
 62
    18
420
   262144
370
    13
100
AcDbVertex
100
AcDb2dVertex
 10
619.0531771610487
 20
398.68830400468
 30
0.0
  0
VERTEX
  5
24D
330
24B
100
AcDbEntity
  8
_U+56FE_U+5C42 1
 62
    18
420
   262144
370
    13
100
AcDbVertex
100
AcDb2dVertex
 10
619.0531771610487
 20
398.68830400468
 30
0.0
  0
SEQEND
  5
24E
330
24B
100
AcDbEntity
  8
_U+56FE_U+5C42 1
 62
    18
420
   262144
370
    13
  0
ENDBLK
  5
24A
330
247
100
AcDbEntity
  8
0
100
AcDbBlockEnd
  0
BLOCK
  5
251
330
24F
100
AcDbEntity
  8
0
100
AcDbBlockBegin
  2
block 19
 70
     0
 10
0.0
 20
0.0
 30
0.0
  3
block 19
  1

  0
POLYLINE
  5
253
330
24F
100
AcDbEntity
  8
_U+56FE_U+5C42 1
 62
    18
420
   262144
370
    13
100
AcDb2dPolyline
 66
     1
 10
0.0
 20
0.0
 30
0.0
  0
VERTEX
  5
254
330
253
100
AcDbEntity
  8
_U+56FE_U+5C42 1
 62
    18
420
   262144
370
    13
100
AcDbVertex
100
AcDb2dVertex
 10
536.647263809614
 20
401.6579769658018
 30
0.0
  0
VERTEX
  5
255
330
253
100
AcDbEntity
  8
_U+56FE_U+5C42 1
 62
    18
420
   262144
370
    13
100
AcDbVertex
100
AcDb2dVertex
 10
536.647263809614
 20
401.6579769658018
 30
0.0
  0
SEQEND
  5
256
330
253
100
AcDbEntity
  8
_U+56FE_U+5C42 1
 62
    18
420
   262144
370
    13
  0
ENDBLK
  5
252
330
24F
100
AcDbEntity
  8
0
100
AcDbBlockEnd
  0
BLOCK
  5
259
330
257
100
AcDbEntity
  8
0
100
AcDbBlockBegin
  2
block 20
 70
     0
 10
0.0
 20
0.0
 30
0.0
  3
block 20
  1

  0
POLYLINE
  5
25B
330
257
100
AcDbEntity
  8
_U+56FE_U+5C42 1
 62
    18
420
   262144
370
    13
100
AcDb2dPolyline
 66
     1
 10
0.0
 20
0.0
 30
0.0
  0
VERTEX
  5
25C
330
25B
100
AcDbEntity
  8
_U+56FE_U+5C42 1
 62
    18
420
   262144
370
    13
100
AcDbVertex
100
AcDb2dVertex
 10
625.8077602226313
 20
405.1159558777552
 30
0.0
  0
VERTEX
  5
25D
330
25B
100
AcDbEntity
  8
_U+56FE_U+5C42 1
 62
    18
420
   262144
370
    13
100
AcDbVertex
100
AcDb2dVertex
 10
625.8077602226313
 20
405.1159558777552
 30
0.0
  0
SEQEND
  5
25E
330
25B
100
AcDbEntity
  8
_U+56FE_U+5C42 1
 62
    18
420
   262144
370
    13
  0
ENDBLK
  5
25A
330
257
100
AcDbEntity
  8
0
100
AcDbBlockEnd
  0
BLOCK
  5
261
330
25F
100
AcDbEntity
  8
0
100
AcDbBlockBegin
  2
block 21
 70
     0
 10
0.0
 20
0.0
 30
0.0
  3
block 21
  1

  0
POLYLINE
  5
263
330
25F
100
AcDbEntity
  8
_U+56FE_U+5C42 1
 62
    18
420
   262144
370
    13
100
AcDb2dPolyline
 66
     1
 10
0.0
 20
0.0
 30
0.0
  0
VERTEX
  5
264
330
263
100
AcDbEntity
  8
_U+56FE_U+5C42 1
 62
    18
420
   262144
370
    13
100
AcDbVertex
100
AcDb2dVertex
 10
604.540137080103
 20
386.9657329979941
 30
0.0
  0
VERTEX
  5
265
330
263
100
AcDbEntity
  8
_U+56FE_U+5C42 1
 62
    18
420
   262144
370
    13
100
AcDbVertex
100
AcDb2dVertex
 10
604.540137080103
 20
386.9657329979941
 30
0.0
  0
SEQEND
  5
266
330
263
100
AcDbEntity
  8
_U+56FE_U+5C42 1
 62
    18
420
   262144
370
    13
  0
ENDBLK
  5
262
330
25F
100
AcDbEntity
  8
0
100
AcDbBlockEnd
  0
BLOCK
  5
269
330
267
100
AcDbEntity
  8
0
100
AcDbBlockBegin
  2
block 22
 70
     0
 10
0.0
 20
0.0
 30
0.0
  3
block 22
  1

  0
POLYLINE
  5
26B
330
267
100
AcDbEntity
  8
_U+56FE_U+5C42 1
 62
    18
420
   262144
370
    13
100
AcDb2dPolyline
 66
     1
 10
0.0
 20
0.0
 30
0.0
  0
VERTEX
  5
26C
330
26B
100
AcDbEntity
  8
_U+56FE_U+5C42 1
 62
    18
420
   262144
370
    13
100
AcDbVertex
100
AcDb2dVertex
 10
624.1661652357244
 20
489.9055788566654
 30
0.0
  0
VERTEX
  5
26D
330
26B
100
AcDbEntity
  8
_U+56FE_U+5C42 1
 62
    18
420
   262144
370
    13
100
AcDbVertex
100
AcDb2dVertex
 10
624.1661652357244
 20
489.9055788566654
 30
0.0
  0
SEQEND
  5
26E
330
26B
100
AcDbEntity
  8
_U+56FE_U+5C42 1
 62
    18
420
   262144
370
    13
  0
ENDBLK
  5
26A
330
267
100
AcDbEntity
  8
0
100
AcDbBlockEnd
  0
BLOCK
  5
271
330
26F
100
AcDbEntity
  8
0
100
AcDbBlockBegin
  2
block 23
 70
     0
 10
0.0
 20
0.0
 30
0.0
  3
block 23
  1

  0
POLYLINE
  5
273
330
26F
100
AcDbEntity
  8
_U+56FE_U+5C42 1
 62
    18
420
   262144
370
    13
100
AcDb2dPolyline
 66
     1
 10
0.0
 20
0.0
 30
0.0
  0
VERTEX
  5
274
330
273
100
AcDbEntity
  8
_U+56FE_U+5C42 1
 62
    18
420
   262144
370
    13
100
AcDbVertex
100
AcDb2dVertex
 10
616.601032206791
 20
393.7203160595907
 30
0.0
  0
VERTEX
  5
275
330
273
100
AcDbEntity
  8
_U+56FE_U+5C42 1
 62
    18
420
   262144
370
    13
100
AcDbVertex
100
AcDb2dVertex
 10
616.601032206791
 20
393.7203160595907
 30
0.0
  0
SEQEND
  5
276
330
273
100
AcDbEntity
  8
_U+56FE_U+5C42 1
 62
    18
420
   262144
370
    13
  0
ENDBLK
  5
272
330
26F
100
AcDbEntity
  8
0
100
AcDbBlockEnd
  0
BLOCK
  5
279
330
277
100
AcDbEntity
  8
0
100
AcDbBlockBegin
  2
block 24
 70
     0
 10
0.0
 20
0.0
 30
0.0
  3
block 24
  1

  0
POLYLINE
  5
27B
330
277
100
AcDbEntity
  8
_U+56FE_U+5C42 1
 62
    18
420
   262144
370
    13
100
AcDb2dPolyline
 66
     1
 10
0.0
 20
0.0
 30
0.0
  0
VERTEX
  5
27C
330
27B
100
AcDbEntity
  8
_U+56FE_U+5C42 1
 62
    18
420
   262144
370
    13
100
AcDbVertex
100
AcDb2dVertex
 10
616.6010322067629
 20
483.1509957950758
 30
0.0
  0
VERTEX
  5
27D
330
27B
100
AcDbEntity
  8
_U+56FE_U+5C42 1
 62
    18
420
   262144
370
    13
100
AcDbVertex
100
AcDb2dVertex
 10
616.6010322067629
 20
483.1509957950758
 30
0.0
  0
SEQEND
  5
27E
330
27B
100
AcDbEntity
  8
_U+56FE_U+5C42 1
 62
    18
420
   262144
370
    13
  0
ENDBLK
  5
27A
330
277
100
AcDbEntity
  8
0
100
AcDbBlockEnd
  0
BLOCK
  5
281
330
27F
100
AcDbEntity
  8
0
100
AcDbBlockBegin
  2
block 25
 70
     0
 10
0.0
 20
0.0
 30
0.0
  3
block 25
  1

  0
INSERT
  5
284
330
27F
100
AcDbEntity
  8
_U+56FE_U+5C42 1
100
AcDbBlockReference
  2
block 26
 10
0.0
 20
0.0
 30
0.0
  0
INSERT
  5
28C
330
27F
100
AcDbEntity
  8
_U+56FE_U+5C42 1
100
AcDbBlockReference
  2
block 27
 10
0.0
 20
0.0
 30
0.0
  0
INSERT
  5
294
330
27F
100
AcDbEntity
  8
_U+56FE_U+5C42 1
100
AcDbBlockReference
  2
block 28
 10
0.0
 20
0.0
 30
0.0
  0
INSERT
  5
29C
330
27F
100
AcDbEntity
  8
_U+56FE_U+5C42 1
100
AcDbBlockReference
  2
block 29
 10
0.0
 20
0.0
 30
0.0
  0
INSERT
  5
2A3
330
27F
100
AcDbEntity
  8
_U+56FE_U+5C42 1
100
AcDbBlockReference
  2
block 30
 10
0.0
 20
0.0
 30
0.0
  0
INSERT
  5
2AB
330
27F
100
AcDbEntity
  8
_U+56FE_U+5C42 1
100
AcDbBlockReference
  2
block 31
 10
0.0
 20
0.0
 30
0.0
  0
INSERT
  5
2B3
330
27F
100
AcDbEntity
  8
_U+56FE_U+5C42 1
100
AcDbBlockReference
  2
block 32
 10
0.0
 20
0.0
 30
0.0
  0
INSERT
  5
2BB
330
27F
100
AcDbEntity
  8
_U+56FE_U+5C42 1
100
AcDbBlockReference
  2
block 33
 10
0.0
 20
0.0
 30
0.0
  0
INSERT
  5
2C2
330
27F
100
AcDbEntity
  8
_U+56FE_U+5C42 1
100
AcDbBlockReference
  2
block 34
 10
0.0
 20
0.0
 30
0.0
  0
INSERT
  5
2CE
330
27F
100
AcDbEntity
  8
_U+56FE_U+5C42 1
100
AcDbBlockReference
  2
block 35
 10
0.0
 20
0.0
 30
0.0
  0
INSERT
  5
2D6
330
27F
100
AcDbEntity
  8
_U+56FE_U+5C42 1
100
AcDbBlockReference
  2
block 36
 10
0.0
 20
0.0
 30
0.0
  0
INSERT
  5
2DE
330
27F
100
AcDbEntity
  8
_U+56FE_U+5C42 1
100
AcDbBlockReference
  2
block 37
 10
0.0
 20
0.0
 30
0.0
  0
INSERT
  5
2E5
330
27F
100
AcDbEntity
  8
_U+56FE_U+5C42 1
100
AcDbBlockReference
  2
block 38
 10
0.0
 20
0.0
 30
0.0
  0
INSERT
  5
2ED
330
27F
100
AcDbEntity
  8
_U+56FE_U+5C42 1
100
AcDbBlockReference
  2
block 39
 10
0.0
 20
0.0
 30
0.0
  0
INSERT
  5
2F5
330
27F
100
AcDbEntity
  8
_U+56FE_U+5C42 1
100
AcDbBlockReference
  2
block 40
 10
0.0
 20
0.0
 30
0.0
  0
INSERT
  5
2FD
330
27F
100
AcDbEntity
  8
_U+56FE_U+5C42 1
100
AcDbBlockReference
  2
block 41
 10
0.0
 20
0.0
 30
0.0
  0
INSERT
  5
304
330
27F
100
AcDbEntity
  8
_U+56FE_U+5C42 1
100
AcDbBlockReference
  2
block 42
 10
0.0
 20
0.0
 30
0.0
  0
INSERT
  5
30C
330
27F
100
AcDbEntity
  8
_U+56FE_U+5C42 1
100
AcDbBlockReference
  2
block 43
 10
0.0
 20
0.0
 30
0.0
  0
INSERT
  5
314
330
27F
100
AcDbEntity
  8
_U+56FE_U+5C42 1
100
AcDbBlockReference
  2
block 44
 10
0.0
 20
0.0
 30
0.0
  0
INSERT
  5
31C
330
27F
100
AcDbEntity
  8
_U+56FE_U+5C42 1
100
AcDbBlockReference
  2
block 45
 10
0.0
 20
0.0
 30
0.0
  0
ENDBLK
  5
282
330
27F
100
AcDbEntity
  8
0
100
AcDbBlockEnd
  0
BLOCK
  5
285
330
283
100
AcDbEntity
  8
0
100
AcDbBlockBegin
  2
block 26
 70
     0
 10
0.0
 20
0.0
 30
0.0
  3
block 26
  1

  0
POLYLINE
  5
287
330
283
100
AcDbEntity
  8
_U+56FE_U+5C42 1
 62
    18
420
   393217
370
    13
100
AcDb2dPolyline
 66
     1
 10
0.0
 20
0.0
 30
0.0
  0
VERTEX
  5
288
330
287
100
AcDbEntity
  8
_U+56FE_U+5C42 1
 62
    18
420
   393217
370
    13
100
AcDbVertex
100
AcDb2dVertex
 10
543.476763503754
 20
397.6913287769085
 30
0.0
  0
VERTEX
  5
289
330
287
100
AcDbEntity
  8
_U+56FE_U+5C42 1
 62
    18
420
   393217
370
    13
100
AcDbVertex
100
AcDb2dVertex
 10
543.476763503754
 20
372.7692432716363
 30
0.0
  0
SEQEND
  5
28A
330
287
100
AcDbEntity
  8
_U+56FE_U+5C42 1
 62
    18
420
   393217
370
    13
  0
ENDBLK
  5
286
330
283
100
AcDbEntity
  8
0
100
AcDbBlockEnd
  0
BLOCK
  5
28D
330
28B
100
AcDbEntity
  8
0
100
AcDbBlockBegin
  2
block 27
 70
     0
 10
0.0
 20
0.0
 30
0.0
  3
block 27
  1

  0
POLYLINE
  5
28F
330
28B
100
AcDbEntity
  8
_U+56FE_U+5C42 1
 62
    18
420
   393217
370
    13
100
AcDb2dPolyline
 66
     1
 10
0.0
 20
0.0
 30
0.0
  0
VERTEX
  5
290
330
28F
100
AcDbEntity
  8
_U+56FE_U+5C42 1
 62
    18
420
   393217
370
    13
100
AcDbVertex
100
AcDb2dVertex
 10
619.1280937936028
 20
396.3357708470348
 30
0.0
  0
VERTEX
  5
291
330
28F
100
AcDbEntity
  8
_U+56FE_U+5C42 1
 62
    18
420
   393217
370
    13
100
AcDbVertex
100
AcDb2dVertex
 10
619.1280937936028
 20
372.8779356623926
 30
0.0
  0
SEQEND
  5
292
330
28F
100
AcDbEntity
  8
_U+56FE_U+5C42 1
 62
    18
420
   393217
370
    13
  0
ENDBLK
  5
28E
330
28B
100
AcDbEntity
  8
0
100
AcDbBlockEnd
  0
BLOCK
  5
295
330
293
100
AcDbEntity
  8
0
100
AcDbBlockBegin
  2
block 28
 70
     0
 10
0.0
 20
0.0
 30
0.0
  3
block 28
  1

  0
POLYLINE
  5
297
330
293
100
AcDbEntity
  8
_U+56FE_U+5C42 1
 62
    18
420
   393217
370
    13
100
AcDb2dPolyline
 66
     1
 10
0.0
 20
0.0
 30
0.0
  0
VERTEX
  5
298
330
297
100
AcDbEntity
  8
_U+56FE_U+5C42 1
 62
    18
420
   393217
370
    13
100
AcDbVertex
100
AcDb2dVertex
 10
543.4024407211996
 20
372.8779356623926
 30
0.0
  0
VERTEX
  5
299
330
297
100
AcDbEntity
  8
_U+56FE_U+5C42 1
 62
    18
420
   393217
370
    13
100
AcDbVertex
100
AcDb2dVertex
 10
619.12809379361
 20
372.8779356623926
 30
0.0
  0
SEQEND
  5
29A
330
297
100
AcDbEntity
  8
_U+56FE_U+5C42 1
 62
    18
420
   393217
370
    13
  0
ENDBLK
  5
296
330
293
100
AcDbEntity
  8
0
100
AcDbBlockEnd
  0
BLOCK
  5
29D
330
29B
100
AcDbEntity
  8
0
100
AcDbBlockBegin
  2
block 29
 70
     0
 10
0.0
 20
0.0
 30
0.0
  3
block 29
  1

  0
MTEXT
  5
29F
330
29B
100
AcDbEntity
  8
_U+56FE_U+5C42 1
 62
    18
420
   262144
100
AcDbMText
 10
571.9674966229926
 20
374.7702014410025
 30
0.0
 40
3.435892581493983
 41
0.0
 46
0.0
 71
     7
 72
     1
  1
\fArial|b0|i0|c0|p34;\W1;11
 73
     1
 44
1.0
  0
MTEXT
  5
2A0
330
29B
100
AcDbEntity
  8
_U+56FE_U+5C42 1
 62
    18
420
   262144
100
AcDbMText
 10
577.1182588829896
 20
374.7702014410025
 30
0.0
 40
3.435892581493983
 41
0.0
 46
0.0
 71
     7
 72
     1
  1
\fArial|b0|i0|c0|p34;\W1;"
 73
     1
 44
1.0
  0
MTEXT
  5
2A1
330
29B
100
AcDbEntity
  8
_U+56FE_U+5C42 1
 62
    18
420
   262144
100
AcDbMText
 10
579.0506129406663
 20
374.7702014410025
 30
0.0
 40
3.435892581493983
 41
0.0
 46
0.0
 71
     7
 72
     1
  1
\fArial|b0|i0|c0|p34;\W1;(281mm)
 73
     1
 44
1.0
  0
ENDBLK
  5
29E
330
29B
100
AcDbEntity
  8
0
100
AcDbBlockEnd
  0
BLOCK
  5
2A4
330
2A2
100
AcDbEntity
  8
0
100
AcDbBlockBegin
  2
block 30
 70
     0
 10
0.0
 20
0.0
 30
0.0
  3
block 30
  1

  0
POLYLINE
  5
2A6
330
2A2
100
AcDbEntity
  8
_U+56FE_U+5C42 1
 62
    18
420
   393217
370
    13
100
AcDb2dPolyline
 66
     1
 10
0.0
 20
0.0
 30
0.0
  0
VERTEX
  5
2A7
330
2A6
100
AcDbEntity
  8
_U+56FE_U+5C42 1
 62
    18
420
   393217
370
    13
100
AcDbVertex
100
AcDb2dVertex
 10
536.7221804421644
 20
399.3054438081675
 30
0.0
  0
VERTEX
  5
2A8
330
2A6
100
AcDbEntity
  8
_U+56FE_U+5C42 1
 62
    18
420
   393217
370
    13
100
AcDbVertex
100
AcDb2dVertex
 10
536.7221804421644
 20
361.4410099654925
 30
0.0
  0
SEQEND
  5
2A9
330
2A6
100
AcDbEntity
  8
_U+56FE_U+5C42 1
 62
    18
420
   393217
370
    13
  0
ENDBLK
  5
2A5
330
2A2
100
AcDbEntity
  8
0
100
AcDbBlockEnd
  0
BLOCK
  5
2AC
330
2AA
100
AcDbEntity
  8
0
100
AcDbBlockBegin
  2
block 31
 70
     0
 10
0.0
 20
0.0
 30
0.0
  3
block 31
  1

  0
POLYLINE
  5
2AE
330
2AA
100
AcDbEntity
  8
_U+56FE_U+5C42 1
 62
    18
420
   393217
370
    13
100
AcDb2dPolyline
 66
     1
 10
0.0
 20
0.0
 30
0.0
  0
VERTEX
  5
2AF
330
2AE
100
AcDbEntity
  8
_U+56FE_U+5C42 1
 62
    18
420
   393217
370
    13
100
AcDbVertex
100
AcDb2dVertex
 10
625.8826768551855
 20
402.7634227201209
 30
0.0
  0
VERTEX
  5
2B0
330
2AE
100
AcDbEntity
  8
_U+56FE_U+5C42 1
 62
    18
420
   393217
370
    13
100
AcDbVertex
100
AcDb2dVertex
 10
625.8826768551855
 20
361.3992468933938
 30
0.0
  0
SEQEND
  5
2B1
330
2AE
100
AcDbEntity
  8
_U+56FE_U+5C42 1
 62
    18
420
   393217
370
    13
  0
ENDBLK
  5
2AD
330
2AA
100
AcDbEntity
  8
0
100
AcDbBlockEnd
  0
BLOCK
  5
2B4
330
2B2
100
AcDbEntity
  8
0
100
AcDbBlockBegin
  2
block 32
 70
     0
 10
0.0
 20
0.0
 30
0.0
  3
block 32
  1

  0
POLYLINE
  5
2B6
330
2B2
100
AcDbEntity
  8
_U+56FE_U+5C42 1
 62
    18
420
   393217
370
    13
100
AcDb2dPolyline
 66
     1
 10
0.0
 20
0.0
 30
0.0
  0
VERTEX
  5
2B7
330
2B6
100
AcDbEntity
  8
_U+56FE_U+5C42 1
 62
    18
420
   393217
370
    13
100
AcDbVertex
100
AcDb2dVertex
 10
536.6472638096069
 20
361.5262921811705
 30
0.0
  0
VERTEX
  5
2B8
330
2B6
100
AcDbEntity
  8
_U+56FE_U+5C42 1
 62
    18
420
   393217
370
    13
100
AcDbVertex
100
AcDb2dVertex
 10
625.9993565598414
 20
361.5262921811705
 30
0.0
  0
SEQEND
  5
2B9
330
2B6
100
AcDbEntity
  8
_U+56FE_U+5C42 1
 62
    18
420
   393217
370
    13
  0
ENDBLK
  5
2B5
330
2B2
100
AcDbEntity
  8
0
100
AcDbBlockEnd
  0
BLOCK
  5
2BC
330
2BA
100
AcDbEntity
  8
0
100
AcDbBlockBegin
  2
block 33
 70
     0
 10
0.0
 20
0.0
 30
0.0
  3
block 33
  1

  0
MTEXT
  5
2BE
330
2BA
100
AcDbEntity
  8
_U+56FE_U+5C42 1
 62
    18
420
   262144
100
AcDbMText
 10
571.9674966229926
 20
363.420334364847
 30
0.0
 40
3.435892581493983
 41
0.0
 46
0.0
 71
     7
 72
     1
  1
\fArial|b0|i0|c0|p34;\W1;13
 73
     1
 44
1.0
  0
MTEXT
  5
2BF
330
2BA
100
AcDbEntity
  8
_U+56FE_U+5C42 1
 62
    18
420
   262144
100
AcDbMText
 10
577.1182588829896
 20
363.420334364847
 30
0.0
 40
3.435892581493983
 41
0.0
 46
0.0
 71
     7
 72
     1
  1
\fArial|b0|i0|c0|p34;\W1;"
 73
     1
 44
1.0
  0
MTEXT
  5
2C0
330
2BA
100
AcDbEntity
  8
_U+56FE_U+5C42 1
 62
    18
420
   262144
100
AcDbMText
 10
579.0506129406663
 20
363.420334364847
 30
0.0
 40
3.435892581493983
 41
0.0
 46
0.0
 71
     7
 72
     1
  1
\fArial|b0|i0|c0|p34;\W1;(330mm)
 73
     1
 44
1.0
  0
ENDBLK
  5
2BD
330
2BA
100
AcDbEntity
  8
0
100
AcDbBlockEnd
  0
BLOCK
  5
2C3
330
2C1
100
AcDbEntity
  8
0
100
AcDbBlockBegin
  2
block 34
 70
     0
 10
0.0
 20
0.0
 30
0.0
  3
block 34
  1

  0
POLYLINE
  5
2C5
330
2C1
100
AcDbEntity
  8
_U+56FE_U+5C42 1
 62
    18
420
   393217
370
    13
100
AcDb2dPolyline
 66
     1
 10
0.0
 20
0.0
 30
0.0
  0
VERTEX
  5
2C6
330
2C5
100
AcDbEntity
  8
_U+56FE_U+5C42 1
 62
    18
420
   393217
370
    13
100
AcDbVertex
100
AcDb2dVertex
 10
623.1059208943105
 20
386.9657329979941
 30
0.0
  0
VERTEX
  5
2C7
330
2C5
100
AcDbEntity
  8
_U+56FE_U+5C42 1
 62
    18
420
   393217
370
    13
100
AcDbVertex
100
AcDb2dVertex
 10
652.9991826701569
 20
386.9657329979941
 30
0.0
  0
SEQEND
  5
2C8
330
2C5
100
AcDbEntity
  8
_U+56FE_U+5C42 1
 62
    18
420
   393217
370
    13
  0
POLYLINE
  5
2C9
330
2C1
100
AcDbEntity
  8
_U+56FE_U+5C42 1
 62
    18
420
   393217
370
    13
100
AcDb2dPolyline
 66
     1
 10
0.0
 20
0.0
 30
0.0
  0
VERTEX
  5
2CA
330
2C9
100
AcDbEntity
  8
_U+56FE_U+5C42 1
 62
    18
420
   393217
370
    13
100
AcDbVertex
100
AcDb2dVertex
 10
604.7839182891948
 20
386.9657329979941
 30
0.0
  0
VERTEX
  5
2CB
330
2C9
100
AcDbEntity
  8
_U+56FE_U+5C42 1
 62
    18
420
   393217
370
    13
100
AcDbVertex
100
AcDb2dVertex
 10
623.1059208943105
 20
386.9657329979941
 30
0.0
  0
SEQEND
  5
2CC
330
2C9
100
AcDbEntity
  8
_U+56FE_U+5C42 1
 62
    18
420
   393217
370
    13
  0
ENDBLK
  5
2C4
330
2C1
100
AcDbEntity
  8
0
100
AcDbBlockEnd
  0
BLOCK
  5
2CF
330
2CD
100
AcDbEntity
  8
0
100
AcDbBlockBegin
  2
block 35
 70
     0
 10
0.0
 20
0.0
 30
0.0
  3
block 35
  1

  0
POLYLINE
  5
2D1
330
2CD
100
AcDbEntity
  8
_U+56FE_U+5C42 1
 62
    18
420
   393217
370
    13
100
AcDb2dPolyline
 66
     1
 10
0.0
 20
0.0
 30
0.0
  0
VERTEX
  5
2D2
330
2D1
100
AcDbEntity
  8
_U+56FE_U+5C42 1
 62
    18
420
   393217
370
    13
100
AcDbVertex
100
AcDb2dVertex
 10
621.4701316307373
 20
489.9055788566654
 30
0.0
  0
VERTEX
  5
2D3
330
2D1
100
AcDbEntity
  8
_U+56FE_U+5C42 1
 62
    18
420
   393217
370
    13
100
AcDbVertex
100
AcDb2dVertex
 10
652.8972639812619
 20
489.9055788566654
 30
0.0
  0
SEQEND
  5
2D4
330
2D1
100
AcDbEntity
  8
_U+56FE_U+5C42 1
 62
    18
420
   393217
370
    13
  0
ENDBLK
  5
2D0
330
2CD
100
AcDbEntity
  8
0
100
AcDbBlockEnd
  0
BLOCK
  5
2D7
330
2D5
100
AcDbEntity
  8
0
100
AcDbBlockBegin
  2
block 36
 70
     0
 10
0.0
 20
0.0
 30
0.0
  3
block 36
  1

  0
POLYLINE
  5
2D9
330
2D5
100
AcDbEntity
  8
_U+56FE_U+5C42 1
 62
    18
420
   393217
370
    13
100
AcDb2dPolyline
 66
     1
 10
0.0
 20
0.0
 30
0.0
  0
VERTEX
  5
2DA
330
2D9
100
AcDbEntity
  8
_U+56FE_U+5C42 1
 62
    18
420
   393217
370
    13
100
AcDbVertex
100
AcDb2dVertex
 10
652.8972639812619
 20
386.9657329979941
 30
0.0
  0
VERTEX
  5
2DB
330
2D9
100
AcDbEntity
  8
_U+56FE_U+5C42 1
 62
    18
420
   393217
370
    13
100
AcDbVertex
100
AcDb2dVertex
 10
652.8972639812619
 20
490.0075652862886
 30
0.0
  0
SEQEND
  5
2DC
330
2D9
100
AcDbEntity
  8
_U+56FE_U+5C42 1
 62
    18
420
   393217
370
    13
  0
ENDBLK
  5
2D8
330
2D5
100
AcDbEntity
  8
0
100
AcDbBlockEnd
  0
BLOCK
  5
2DF
330
2DD
100
AcDbEntity
  8
0
100
AcDbBlockBegin
  2
block 37
 70
     0
 10
0.0
 20
0.0
 30
0.0
  3
block 37
  1

  0
MTEXT
  5
2E1
330
2DD
100
AcDbEntity
  8
_U+56FE_U+5C42 1
 62
    18
420
   262144
100
AcDbMText
 10
651.0024656787547
 20
433.5108020122549
 30
0.0
 40
3.435892581493983
 41
0.0
 46
0.0
 71
     7
 72
     1
  1
\fArial|b0|i0|c0|p34;\W1;15
 11
6.123233995736766E-17
 21
1.0
 31
0.0
 73
     1
 44
1.0
  0
MTEXT
  5
2E2
330
2DD
100
AcDbEntity
  8
_U+56FE_U+5C42 1
 62
    18
420
   262144
100
AcDbMText
 10
651.0024656787547
 20
438.6586359410895
 30
0.0
 40
3.435892581493983
 41
0.0
 46
0.0
 71
     7
 72
     1
  1
\fArial|b0|i0|c0|p34;\W1;"(
 11
6.123233995736766E-17
 21
1.0
 31
0.0
 73
     1
 44
1.0
  0
MTEXT
  5
2E3
330
2DD
100
AcDbEntity
  8
_U+56FE_U+5C42 1
 62
    18
420
   262144
100
AcDbMText
 10
651.0024656787547
 20
442.5261001328309
 30
0.0
 40
3.435892581493983
 41
0.0
 46
0.0
 71
     7
 72
     1
  1
\fArial|b0|i0|c0|p34;\W1;381mm)
 11
6.123233995736766E-17
 21
1.0
 31
0.0
 73
     1
 44
1.0
  0
ENDBLK
  5
2E0
330
2DD
100
AcDbEntity
  8
0
100
AcDbBlockEnd
  0
BLOCK
  5
2E6
330
2E4
100
AcDbEntity
  8
0
100
AcDbBlockBegin
  2
block 38
 70
     0
 10
0.0
 20
0.0
 30
0.0
  3
block 38
  1

  0
POLYLINE
  5
2E8
330
2E4
100
AcDbEntity
  8
_U+56FE_U+5C42 1
 62
    18
420
   393217
370
    13
100
AcDb2dPolyline
 66
     1
 10
0.0
 20
0.0
 30
0.0
  0
VERTEX
  5
2E9
330
2E8
100
AcDbEntity
  8
_U+56FE_U+5C42 1
 62
    18
420
   393217
370
    13
100
AcDbVertex
100
AcDb2dVertex
 10
616.844813415879
 20
393.6239812015942
 30
0.0
  0
VERTEX
  5
2EA
330
2E8
100
AcDbEntity
  8
_U+56FE_U+5C42 1
 62
    18
420
   393217
370
    13
100
AcDbVertex
100
AcDb2dVertex
 10
639.8751372638649
 20
393.6239812015942
 30
0.0
  0
SEQEND
  5
2EB
330
2E8
100
AcDbEntity
  8
_U+56FE_U+5C42 1
 62
    18
420
   393217
370
    13
  0
ENDBLK
  5
2E7
330
2E4
100
AcDbEntity
  8
0
100
AcDbBlockEnd
  0
BLOCK
  5
2EE
330
2EC
100
AcDbEntity
  8
0
100
AcDbBlockBegin
  2
block 39
 70
     0
 10
0.0
 20
0.0
 30
0.0
  3
block 39
  1

  0
POLYLINE
  5
2F0
330
2EC
100
AcDbEntity
  8
_U+56FE_U+5C42 1
 62
    18
420
   393217
370
    13
100
AcDb2dPolyline
 66
     1
 10
0.0
 20
0.0
 30
0.0
  0
VERTEX
  5
2F1
330
2F0
100
AcDbEntity
  8
_U+56FE_U+5C42 1
 62
    18
420
   393217
370
    13
100
AcDbVertex
100
AcDb2dVertex
 10
616.8448134158508
 20
483.1509957950758
 30
0.0
  0
VERTEX
  5
2F2
330
2F0
100
AcDbEntity
  8
_U+56FE_U+5C42 1
 62
    18
420
   393217
370
    13
100
AcDbVertex
100
AcDb2dVertex
 10
639.9377818720105
 20
483.1509957950758
 30
0.0
  0
SEQEND
  5
2F3
330
2F0
100
AcDbEntity
  8
_U+56FE_U+5C42 1
 62
    18
420
   393217
370
    13
  0
ENDBLK
  5
2EF
330
2EC
100
AcDbEntity
  8
0
100
AcDbBlockEnd
  0
BLOCK
  5
2F6
330
2F4
100
AcDbEntity
  8
0
100
AcDbBlockBegin
  2
block 40
 70
     0
 10
0.0
 20
0.0
 30
0.0
  3
block 40
  1

  0
POLYLINE
  5
2F8
330
2F4
100
AcDbEntity
  8
_U+56FE_U+5C42 1
 62
    18
420
   393217
370
    13
100
AcDb2dPolyline
 66
     1
 10
0.0
 20
0.0
 30
0.0
  0
VERTEX
  5
2F9
330
2F8
100
AcDbEntity
  8
_U+56FE_U+5C42 1
 62
    18
420
   393217
370
    13
100
AcDbVertex
100
AcDb2dVertex
 10
639.7860106160217
 20
393.7203160595907
 30
0.0
  0
VERTEX
  5
2FA
330
2F8
100
AcDbEntity
  8
_U+56FE_U+5C42 1
 62
    18
420
   393217
370
    13
100
AcDbVertex
100
AcDb2dVertex
 10
639.7860106160217
 20
483.1509957950722
 30
0.0
  0
SEQEND
  5
2FB
330
2F8
100
AcDbEntity
  8
_U+56FE_U+5C42 1
 62
    18
420
   393217
370
    13
  0
ENDBLK
  5
2F7
330
2F4
100
AcDbEntity
  8
0
100
AcDbBlockEnd
  0
BLOCK
  5
2FE
330
2FC
100
AcDbEntity
  8
0
100
AcDbBlockBegin
  2
block 41
 70
     0
 10
0.0
 20
0.0
 30
0.0
  3
block 41
  1

  0
MTEXT
  5
300
330
2FC
100
AcDbEntity
  8
_U+56FE_U+5C42 1
 62
    18
420
   262144
100
AcDbMText
 10
637.8914657905393
 20
433.7547147726106
 30
0.0
 40
3.435892581493983
 41
0.0
 46
0.0
 71
     7
 72
     1
  1
\fArial|b0|i0|c0|p34;\W1;13
 11
6.123233995736766E-17
 21
1.0
 31
0.0
 73
     1
 44
1.0
  0
MTEXT
  5
301
330
2FC
100
AcDbEntity
  8
_U+56FE_U+5C42 1
 62
    18
420
   262144
100
AcDbMText
 10
637.8914657905393
 20
438.9054770326076
 30
0.0
 40
3.435892581493983
 41
0.0
 46
0.0
 71
     7
 72
     1
  1
\fArial|b0|i0|c0|p34;\W1;"(
 11
6.123233995736766E-17
 21
1.0
 31
0.0
 73
     1
 44
1.0
  0
MTEXT
  5
302
330
2FC
100
AcDbEntity
  8
_U+56FE_U+5C42 1
 62
    18
420
   262144
100
AcDbMText
 10
637.8914657905393
 20
442.7694961288639
 30
0.0
 40
3.435892581493983
 41
0.0
 46
0.0
 71
     7
 72
     1
  1
\fArial|b0|i0|c0|p34;\W1;331mm)
 11
6.123233995736766E-17
 21
1.0
 31
0.0
 73
     1
 44
1.0
  0
ENDBLK
  5
2FF
330
2FC
100
AcDbEntity
  8
0
100
AcDbBlockEnd
  0
BLOCK
  5
305
330
303
100
AcDbEntity
  8
0
100
AcDbBlockBegin
  2
block 42
 70
     0
 10
0.0
 20
0.0
 30
0.0
  3
block 42
  1

  0
POLYLINE
  5
307
330
303
100
AcDbEntity
  8
_U+56FE_U+5C42 1
 62
    18
420
   196608
370
    13
100
AcDb2dPolyline
 66
     1
 10
0.0
 20
0.0
 30
0.0
  0
VERTEX
  5
308
330
307
100
AcDbEntity
  8
_U+56FE_U+5C42 1
 62
    18
420
   196608
370
    13
100
AcDbVertex
100
AcDb2dVertex
 10
619.1280937936028
 20
372.8779356623926
 30
0.0
  0
VERTEX
  5
309
330
307
100
AcDbEntity
  8
_U+56FE_U+5C42 1
 62
    18
420
   196608
370
    13
100
AcDbVertex
100
AcDb2dVertex
 10
619.1280937936028
 20
372.8779356623926
 30
0.0
  0
SEQEND
  5
30A
330
307
100
AcDbEntity
  8
_U+56FE_U+5C42 1
 62
    18
420
   196608
370
    13
  0
ENDBLK
  5
306
330
303
100
AcDbEntity
  8
0
100
AcDbBlockEnd
  0
BLOCK
  5
30D
330
30B
100
AcDbEntity
  8
0
100
AcDbBlockBegin
  2
block 43
 70
     0
 10
0.0
 20
0.0
 30
0.0
  3
block 43
  1

  0
POLYLINE
  5
30F
330
30B
100
AcDbEntity
  8
_U+56FE_U+5C42 1
 62
    18
420
   196608
370
    13
100
AcDb2dPolyline
 66
     1
 10
0.0
 20
0.0
 30
0.0
  0
VERTEX
  5
310
330
30F
100
AcDbEntity
  8
_U+56FE_U+5C42 1
 62
    18
420
   196608
370
    13
100
AcDbVertex
100
AcDb2dVertex
 10
625.8826768551855
 20
361.5262921811705
 30
0.0
  0
VERTEX
  5
311
330
30F
100
AcDbEntity
  8
_U+56FE_U+5C42 1
 62
    18
420
   196608
370
    13
100
AcDbVertex
100
AcDb2dVertex
 10
625.8826768551855
 20
361.5262921811705
 30
0.0
  0
SEQEND
  5
312
330
30F
100
AcDbEntity
  8
_U+56FE_U+5C42 1
 62
    18
420
   196608
370
    13
  0
ENDBLK
  5
30E
330
30B
100
AcDbEntity
  8
0
100
AcDbBlockEnd
  0
BLOCK
  5
315
330
313
100
AcDbEntity
  8
0
100
AcDbBlockBegin
  2
block 44
 70
     0
 10
0.0
 20
0.0
 30
0.0
  3
block 44
  1

  0
POLYLINE
  5
317
330
313
100
AcDbEntity
  8
_U+56FE_U+5C42 1
 62
    18
420
   196608
370
    13
100
AcDb2dPolyline
 66
     1
 10
0.0
 20
0.0
 30
0.0
  0
VERTEX
  5
318
330
317
100
AcDbEntity
  8
_U+56FE_U+5C42 1
 62
    18
420
   196608
370
    13
100
AcDbVertex
100
AcDb2dVertex
 10
652.8972639812619
 20
487.7219102755654
 30
0.0
  0
VERTEX
  5
319
330
317
100
AcDbEntity
  8
_U+56FE_U+5C42 1
 62
    18
420
   196608
370
    13
100
AcDbVertex
100
AcDb2dVertex
 10
652.8972639812619
 20
487.7219102755654
 30
0.0
  0
SEQEND
  5
31A
330
317
100
AcDbEntity
  8
_U+56FE_U+5C42 1
 62
    18
420
   196608
370
    13
  0
ENDBLK
  5
316
330
313
100
AcDbEntity
  8
0
100
AcDbBlockEnd
  0
BLOCK
  5
31D
330
31B
100
AcDbEntity
  8
0
100
AcDbBlockBegin
  2
block 45
 70
     0
 10
0.0
 20
0.0
 30
0.0
  3
block 45
  1

  0
POLYLINE
  5
31F
330
31B
100
AcDbEntity
  8
_U+56FE_U+5C42 1
 62
    18
420
   196608
370
    13
100
AcDb2dPolyline
 66
     1
 10
0.0
 20
0.0
 30
0.0
  0
VERTEX
  5
320
330
31F
100
AcDbEntity
  8
_U+56FE_U+5C42 1
 62
    18
420
   196608
370
    13
100
AcDbVertex
100
AcDb2dVertex
 10
639.7860106160217
 20
480.9673272139758
 30
0.0
  0
VERTEX
  5
321
330
31F
100
AcDbEntity
  8
_U+56FE_U+5C42 1
 62
    18
420
   196608
370
    13
100
AcDbVertex
100
AcDb2dVertex
 10
639.7860106160217
 20
480.9673272139758
 30
0.0
  0
SEQEND
  5
322
330
31F
100
AcDbEntity
  8
_U+56FE_U+5C42 1
 62
    18
420
   196608
370
    13
  0
ENDBLK
  5
31E
330
31B
100
AcDbEntity
  8
0
100
AcDbBlockEnd
  0
BLOCK
  5
325
330
323
100
AcDbEntity
  8
0
100
AcDbBlockBegin
  2
block 46
 70
     0
 10
0.0
 20
0.0
 30
0.0
  3
block 46
  1

  0
POLYLINE
  5
327
330
323
100
AcDbEntity
  8
_U+56FE_U+5C42 1
 62
    18
420
   262144
370
    13
100
AcDb2dPolyline
 66
     1
 10
0.0
 20
0.0
 30
0.0
  0
VERTEX
  5
328
330
327
100
AcDbEntity
  8
_U+56FE_U+5C42 1
 62
    18
420
   262144
370
    13
100
AcDbVertex
100
AcDb2dVertex
 10
546.1036800958339
 20
480.4491625704141
 30
0.0
  0
VERTEX
  5
329
330
327
100
AcDbEntity
  8
_U+56FE_U+5C42 1
 62
    18
420
   262144
370
    13
100
AcDbVertex
100
AcDb2dVertex
 10
546.1036800958339
 20
480.4491625704141
 30
0.0
  0
SEQEND
  5
32A
330
327
100
AcDbEntity
  8
_U+56FE_U+5C42 1
 62
    18
420
   262144
370
    13
  0
ENDBLK
  5
326
330
323
100
AcDbEntity
  8
0
100
AcDbBlockEnd
  0
BLOCK
  5
32D
330
32B
100
AcDbEntity
  8
0
100
AcDbBlockBegin
  2
block 47
 70
     0
 10
0.0
 20
0.0
 30
0.0
  3
block 47
  1

  0
POLYLINE
  5
32F
330
32B
100
AcDbEntity
  8
_U+56FE_U+5C42 1
 62
    18
420
   262144
370
    13
100
AcDb2dPolyline
 66
     1
 10
0.0
 20
0.0
 30
0.0
  0
VERTEX
  5
330
330
32F
100
AcDbEntity
  8
_U+56FE_U+5C42 1
 62
    18
420
   262144
370
    13
100
AcDbVertex
100
AcDb2dVertex
 10
581.227512016121
 20
447.0815222461684
 30
0.0
  0
VERTEX
  5
331
330
32F
100
AcDbEntity
  8
_U+56FE_U+5C42 1
 62
    18
420
   262144
370
    13
100
AcDbVertex
100
AcDb2dVertex
 10
581.227512016121
 20
447.0815222461684
 30
0.0
  0
SEQEND
  5
332
330
32F
100
AcDbEntity
  8
_U+56FE_U+5C42 1
 62
    18
420
   262144
370
    13
  0
ENDBLK
  5
32E
330
32B
100
AcDbEntity
  8
0
100
AcDbBlockEnd
  0
BLOCK
  5
335
330
333
100
AcDbEntity
  8
0
100
AcDbBlockBegin
  2
block 48
 70
     0
 10
0.0
 20
0.0
 30
0.0
  3
block 48
  1

  0
POLYLINE
  5
337
330
333
100
AcDbEntity
  8
_U+56FE_U+5C42 1
 62
    18
420
   262144
370
    13
100
AcDb2dPolyline
 66
     1
 10
0.0
 20
0.0
 30
0.0
  0
VERTEX
  5
338
330
337
100
AcDbEntity
  8
_U+56FE_U+5C42 1
 62
    18
420
   262144
370
    13
100
AcDbVertex
100
AcDb2dVertex
 10
581.227512016121
 20
483.1509957950758
 30
0.0
  0
VERTEX
  5
339
330
337
100
AcDbEntity
  8
_U+56FE_U+5C42 1
 62
    18
420
   262144
370
    13
100
AcDbVertex
100
AcDb2dVertex
 10
581.227512016121
 20
483.1509957950758
 30
0.0
  0
SEQEND
  5
33A
330
337
100
AcDbEntity
  8
_U+56FE_U+5C42 1
 62
    18
420
   262144
370
    13
  0
ENDBLK
  5
336
330
333
100
AcDbEntity
  8
0
100
AcDbBlockEnd
  0
BLOCK
  5
33D
330
33B
100
AcDbEntity
  8
0
100
AcDbBlockBegin
  2
block 49
 70
     0
 10
0.0
 20
0.0
 30
0.0
  3
block 49
  1

  0
POLYLINE
  5
33F
330
33B
100
AcDbEntity
  8
_U+56FE_U+5C42 1
 62
    18
420
   262144
370
    13
100
AcDb2dPolyline
 66
     1
 10
0.0
 20
0.0
 30
0.0
  0
VERTEX
  5
340
330
33F
100
AcDbEntity
  8
_U+56FE_U+5C42 1
 62
    18
420
   262144
370
    13
100
AcDbVertex
100
AcDb2dVertex
 10
610.1922971956068
 20
483.1509957950758
 30
0.0
  0
VERTEX
  5
341
330
33F
100
AcDbEntity
  8
_U+56FE_U+5C42 1
 62
    18
420
   262144
370
    13
100
AcDbVertex
100
AcDb2dVertex
 10
610.1922971956068
 20
483.1509957950758
 30
0.0
  0
SEQEND
  5
342
330
33F
100
AcDbEntity
  8
_U+56FE_U+5C42 1
 62
    18
420
   262144
370
    13
  0
ENDBLK
  5
33E
330
33B
100
AcDbEntity
  8
0
100
AcDbBlockEnd
  0
BLOCK
  5
361
330
35F
100
AcDbEntity
  8
0
100
AcDbBlockBegin
  2
block 50
 70
     0
 10
0.0
 20
0.0
 30
0.0
  3
block 50
  1

  0
MTEXT
  5
363
330
35F
100
AcDbEntity
  8
_U+56FE_U+5C42 1
 62
    18
420
   262144
100
AcDbMText
 10
523.6968238369035
 20
452.0172090036136
 30
0.0
 40
3.435892581493983
 41
0.0
 46
0.0
 71
     7
 72
     1
  1
\fArial|b0|i0|c0|p34;\W1;5.3
 11
6.123233995736766E-17
 21
1.0
 31
0.0
 73
     1
 44
1.0
  0
MTEXT
  5
364
330
35F
100
AcDbEntity
  8
_U+56FE_U+5C42 1
 62
    18
420
   262144
100
AcDbMText
 10
523.6968238369035
 20
458.9318601520585
 30
0.0
 40
3.435892581493983
 41
0.0
 46
0.0
 71
     7
 72
     1
  1
\fArial|b0|i0|c0|p34;\W1;"(
 11
6.123233995736766E-17
 21
1.0
 31
0.0
 73
     1
 44
1.0
  0
MTEXT
  5
365
330
35F
100
AcDbEntity
  8
_U+56FE_U+5C42 1
 62
    18
420
   262144
100
AcDbMText
 10
523.6968238369035
 20
462.7958792483147
 30
0.0
 40
3.435892581493983
 41
0.0
 46
0.0
 71
     7
 72
     1
  1
\fArial|b0|i0|c0|p34;\W1;135mm)
 11
6.123233995736766E-17
 21
1.0
 31
0.0
 73
     1
 44
1.0
  0
ENDBLK
  5
362
330
35F
100
AcDbEntity
  8
0
100
AcDbBlockEnd
  0
BLOCK
  5
376
330
374
100
AcDbEntity
  8
0
100
AcDbBlockBegin
  2
block 51
 70
     0
 10
0.0
 20
0.0
 30
0.0
  3
block 51
  1

  0
MTEXT
  5
378
330
374
100
AcDbEntity
  8
_U+56FE_U+5C42 1
 62
    18
420
   262144
100
AcDbMText
 10
490.9024754462577
 20
419.8865582582011
 30
0.0
 40
3.435892581493983
 41
0.0
 46
0.0
 71
     7
 72
     1
  1
\fArial|b0|i0|c0|p34;\W1;Φ3 1/2
 73
     1
 44
1.0
  0
MTEXT
  5
379
330
374
100
AcDbEntity
  8
_U+56FE_U+5C42 1
 62
    18
420
   262144
100
AcDbMText
 10
505.5782377038735
 20
419.8865582582011
 30
0.0
 40
3.435892581493983
 41
0.0
 46
0.0
 71
     7
 72
     1
  1
\fArial|b0|i0|c0|p34;\W1;"
 73
     1
 44
1.0
  0
MTEXT
  5
37A
330
374
100
AcDbEntity
  8
_U+56FE_U+5C42 1
 62
    18
420
   262144
100
AcDbMText
 10
507.5105917615501
 20
419.8865582582011
 30
0.0
 40
3.435892581493983
 41
0.0
 46
0.0
 71
     7
 72
     1
  1
\fArial|b0|i0|c0|p34;\W1;(90mm)
 73
     1
 44
1.0
  0
ENDBLK
  5
377
330
374
100
AcDbEntity
  8
0
100
AcDbBlockEnd
  0
BLOCK
  5
37D
330
37B
100
AcDbEntity
  8
0
100
AcDbBlockBegin
  2
block 52
 70
     0
 10
0.0
 20
0.0
 30
0.0
  3
block 52
  1

  0
INSERT
  5
380
330
37B
100
AcDbEntity
  8
_U+56FE_U+5C42 1
100
AcDbBlockReference
  2
block 53
 10
0.0
 20
0.0
 30
0.0
  0
INSERT
  5
388
330
37B
100
AcDbEntity
  8
_U+56FE_U+5C42 1
100
AcDbBlockReference
  2
block 54
 10
0.0
 20
0.0
 30
0.0
  0
INSERT
  5
390
330
37B
100
AcDbEntity
  8
_U+56FE_U+5C42 1
100
AcDbBlockReference
  2
block 55
 10
0.0
 20
0.0
 30
0.0
  0
INSERT
  5
395
330
37B
100
AcDbEntity
  8
_U+56FE_U+5C42 1
100
AcDbBlockReference
  2
block 56
 10
0.0
 20
0.0
 30
0.0
  0
INSERT
  5
39D
330
37B
100
AcDbEntity
  8
_U+56FE_U+5C42 1
100
AcDbBlockReference
  2
block 57
 10
0.0
 20
0.0
 30
0.0
  0
INSERT
  5
3A2
330
37B
100
AcDbEntity
  8
_U+56FE_U+5C42 1
100
AcDbBlockReference
  2
block 58
 10
0.0
 20
0.0
 30
0.0
  0
INSERT
  5
3AA
330
37B
100
AcDbEntity
  8
_U+56FE_U+5C42 1
100
AcDbBlockReference
  2
block 59
 10
0.0
 20
0.0
 30
0.0
  0
INSERT
  5
3AF
330
37B
100
AcDbEntity
  8
_U+56FE_U+5C42 1
100
AcDbBlockReference
  2
block 60
 10
0.0
 20
0.0
 30
0.0
  0
INSERT
  5
3B4
330
37B
100
AcDbEntity
  8
_U+56FE_U+5C42 1
100
AcDbBlockReference
  2
block 61
 10
0.0
 20
0.0
 30
0.0
  0
INSERT
  5
3BC
330
37B
100
AcDbEntity
  8
_U+56FE_U+5C42 1
100
AcDbBlockReference
  2
block 62
 10
0.0
 20
0.0
 30
0.0
  0
INSERT
  5
3C4
330
37B
100
AcDbEntity
  8
_U+56FE_U+5C42 1
100
AcDbBlockReference
  2
block 63
 10
0.0
 20
0.0
 30
0.0
  0
INSERT
  5
3CC
330
37B
100
AcDbEntity
  8
_U+56FE_U+5C42 1
100
AcDbBlockReference
  2
block 64
 10
0.0
 20
0.0
 30
0.0
  0
ENDBLK
  5
37E
330
37B
100
AcDbEntity
  8
0
100
AcDbBlockEnd
  0
BLOCK
  5
381
330
37F
100
AcDbEntity
  8
0
100
AcDbBlockBegin
  2
block 53
 70
     0
 10
0.0
 20
0.0
 30
0.0
  3
block 53
  1

  0
POLYLINE
  5
383
330
37F
100
AcDbEntity
  8
_U+56FE_U+5C42 1
 62
    18
420
   196608
370
    13
100
AcDb2dPolyline
 66
     1
 10
0.0
 20
0.0
 30
0.0
  0
VERTEX
  5
384
330
383
100
AcDbEntity
  8
_U+56FE_U+5C42 1
 62
    18
420
   196608
370
    13
100
AcDbVertex
100
AcDb2dVertex
 10
448.9060310764837
 20
535.8912883871338
 30
0.0
  0
VERTEX
  5
385
330
383
100
AcDbEntity
  8
_U+56FE_U+5C42 1
 62
    18
420
   196608
370
    13
100
AcDbVertex
100
AcDb2dVertex
 10
718.9060310089797
 20
535.8912883871338
 30
0.0
  0
SEQEND
  5
386
330
383
100
AcDbEntity
  8
_U+56FE_U+5C42 1
 62
    18
420
   196608
370
    13
  0
ENDBLK
  5
382
330
37F
100
AcDbEntity
  8
0
100
AcDbBlockEnd
  0
BLOCK
  5
389
330
387
100
AcDbEntity
  8
0
100
AcDbBlockBegin
  2
block 54
 70
     0
 10
0.0
 20
0.0
 30
0.0
  3
block 54
  1

  0
POLYLINE
  5
38B
330
387
100
AcDbEntity
  8
_U+56FE_U+5C42 1
 62
    18
420
   196608
370
    13
100
AcDb2dPolyline
 66
     1
 10
0.0
 20
0.0
 30
0.0
  0
VERTEX
  5
38C
330
38B
100
AcDbEntity
  8
_U+56FE_U+5C42 1
 62
    18
420
   196608
370
    13
100
AcDbVertex
100
AcDb2dVertex
 10
728.9060310064787
 20
525.8912883896422
 30
0.0
  0
VERTEX
  5
38D
330
38B
100
AcDbEntity
  8
_U+56FE_U+5C42 1
 62
    18
420
   196608
370
    13
100
AcDbVertex
100
AcDb2dVertex
 10
728.9060310064223
 20
205.8912884696604
 30
0.0
  0
SEQEND
  5
38E
330
38B
100
AcDbEntity
  8
_U+56FE_U+5C42 1
 62
    18
420
   196608
370
    13
  0
ENDBLK
  5
38A
330
387
100
AcDbEntity
  8
0
100
AcDbBlockEnd
  0
BLOCK
  5
391
330
38F
100
AcDbEntity
  8
0
100
AcDbBlockBegin
  2
block 55
 70
     0
 10
0.0
 20
0.0
 30
0.0
  3
block 55
  1

  0
SPLINE
  5
393
330
38F
100
AcDbEntity
  8
_U+56FE_U+5C42 1
 62
    18
420
   196608
370
    13
100
AcDbSpline
210
0.0
220
0.0
230
1.0
 70
     8
 71
     3
 72
     8
 73
     4
 74
     0
 42
0.0000000001
 43
0.0000000001
 12
1.0
 22
0.0
 32
0.0
 13
1.0
 23
0.0
 33
0.0
 40
0.0
 40
0.0
 40
0.0
 40
0.0
 40
1.0
 40
1.0
 40
1.0
 40
1.0
 10
728.9060310064787
 20
525.8912883896422
 30
0.0
 10
728.9060310064787
 20
531.4141358865677
 30
0.0
 10
724.4288785059192
 20
535.8912883871338
 30
0.0
 10
718.906031008997
 20
535.8912883871338
 30
0.0
  0
ENDBLK
  5
392
330
38F
100
AcDbEntity
  8
0
100
AcDbBlockEnd
  0
BLOCK
  5
396
330
394
100
AcDbEntity
  8
0
100
AcDbBlockBegin
  2
block 56
 70
     0
 10
0.0
 20
0.0
 30
0.0
  3
block 56
  1

  0
POLYLINE
  5
398
330
394
100
AcDbEntity
  8
_U+56FE_U+5C42 1
 62
    18
420
   196608
370
    13
100
AcDb2dPolyline
 66
     1
 10
0.0
 20
0.0
 30
0.0
  0
VERTEX
  5
399
330
398
100
AcDbEntity
  8
_U+56FE_U+5C42 1
 62
    18
420
   196608
370
    13
100
AcDbVertex
100
AcDb2dVertex
 10
718.9060310089412
 20
195.8912884721563
 30
0.0
  0
VERTEX
  5
39A
330
398
100
AcDbEntity
  8
_U+56FE_U+5C42 1
 62
    18
420
   196608
370
    13
100
AcDbVertex
100
AcDb2dVertex
 10
448.9060310765436
 20
195.8912884721358
 30
0.0
  0
SEQEND
  5
39B
330
398
100
AcDbEntity
  8
_U+56FE_U+5C42 1
 62
    18
420
   196608
370
    13
  0
ENDBLK
  5
397
330
394
100
AcDbEntity
  8
0
100
AcDbBlockEnd
  0
BLOCK
  5
39E
330
39C
100
AcDbEntity
  8
0
100
AcDbBlockBegin
  2
block 57
 70
     0
 10
0.0
 20
0.0
 30
0.0
  3
block 57
  1

  0
SPLINE
  5
3A0
330
39C
100
AcDbEntity
  8
_U+56FE_U+5C42 1
 62
    18
420
   196608
370
    13
100
AcDbSpline
210
0.0
220
0.0
230
1.0
 70
     8
 71
     3
 72
     8
 73
     4
 74
     0
 42
0.0000000001
 43
0.0000000001
 12
1.0
 22
0.0
 32
0.0
 13
1.0
 23
0.0
 33
0.0
 40
0.0
 40
0.0
 40
0.0
 40
0.0
 40
1.0
 40
1.0
 40
1.0
 40
1.0
 10
718.9060310089412
 20
195.8912884721563
 30
0.0
 10
724.4288785058448
 20
195.8912884721563
 30
0.0
 10
728.9060310064223
 20
200.3684409727344
 30
0.0
 10
728.9060310064223
 20
205.8912884696604
 30
0.0
  0
ENDBLK
  5
39F
330
39C
100
AcDbEntity
  8
0
100
AcDbBlockEnd
  0
BLOCK
  5
3A3
330
3A1
100
AcDbEntity
  8
0
100
AcDbBlockBegin
  2
block 58
 70
     0
 10
0.0
 20
0.0
 30
0.0
  3
block 58
  1

  0
POLYLINE
  5
3A5
330
3A1
100
AcDbEntity
  8
_U+56FE_U+5C42 1
 62
    18
420
   196608
370
    13
100
AcDb2dPolyline
 66
     1
 10
0.0
 20
0.0
 30
0.0
  0
VERTEX
  5
3A6
330
3A5
100
AcDbEntity
  8
_U+56FE_U+5C42 1
 62
    18
420
   196608
370
    13
100
AcDbVertex
100
AcDb2dVertex
 10
438.9060310790379
 20
205.8912884696206
 30
0.0
  0
VERTEX
  5
3A7
330
3A5
100
AcDbEntity
  8
_U+56FE_U+5C42 1
 62
    18
420
   196608
370
    13
100
AcDbVertex
100
AcDb2dVertex
 10
438.9060310789814
 20
525.8912883896422
 30
0.0
  0
SEQEND
  5
3A8
330
3A5
100
AcDbEntity
  8
_U+56FE_U+5C42 1
 62
    18
420
   196608
370
    13
  0
ENDBLK
  5
3A4
330
3A1
100
AcDbEntity
  8
0
100
AcDbBlockEnd
  0
BLOCK
  5
3AB
330
3A9
100
AcDbEntity
  8
0
100
AcDbBlockBegin
  2
block 59
 70
     0
 10
0.0
 20
0.0
 30
0.0
  3
block 59
  1

  0
SPLINE
  5
3AD
330
3A9
100
AcDbEntity
  8
_U+56FE_U+5C42 1
 62
    18
420
   196608
370
    13
100
AcDbSpline
210
0.0
220
0.0
230
1.0
 70
     8
 71
     3
 72
     8
 73
     4
 74
     0
 42
0.0000000001
 43
0.0000000001
 12
1.0
 22
0.0
 32
0.0
 13
1.0
 23
0.0
 33
0.0
 40
0.0
 40
0.0
 40
0.0
 40
0.0
 40
1.0
 40
1.0
 40
1.0
 40
1.0
 10
438.9060310790379
 20
205.8912884696206
 30
0.0
 10
438.9060310790379
 20
200.3684409726959
 30
0.0
 10
443.3831835796182
 20
195.8912884721358
 30
0.0
 10
448.9060310765436
 20
195.8912884721358
 30
0.0
  0
ENDBLK
  5
3AC
330
3A9
100
AcDbEntity
  8
0
100
AcDbBlockEnd
  0
BLOCK
  5
3B0
330
3AE
100
AcDbEntity
  8
0
100
AcDbBlockBegin
  2
block 60
 70
     0
 10
0.0
 20
0.0
 30
0.0
  3
block 60
  1

  0
SPLINE
  5
3B2
330
3AE
100
AcDbEntity
  8
_U+56FE_U+5C42 1
 62
    18
420
   196608
370
    13
100
AcDbSpline
210
0.0
220
0.0
230
1.0
 70
     8
 71
     3
 72
     8
 73
     4
 74
     0
 42
0.0000000001
 43
0.0000000001
 12
1.0
 22
0.0
 32
0.0
 13
1.0
 23
0.0
 33
0.0
 40
0.0
 40
0.0
 40
0.0
 40
0.0
 40
1.0
 40
1.0
 40
1.0
 40
1.0
 10
448.9060310764837
 20
535.8912883871338
 30
0.0
 10
443.3831835795582
 20
535.8912883871338
 30
0.0
 10
438.9060310789814
 20
531.4141358865677
 30
0.0
 10
438.9060310789814
 20
525.8912883896422
 30
0.0
  0
ENDBLK
  5
3B1
330
3AE
100
AcDbEntity
  8
0
100
AcDbBlockEnd
  0
BLOCK
  5
3B5
330
3B3
100
AcDbEntity
  8
0
100
AcDbBlockBegin
  2
block 61
 70
     0
 10
0.0
 20
0.0
 30
0.0
  3
block 61
  1

  0
POLYLINE
  5
3B7
330
3B3
100
AcDbEntity
  8
_U+56FE_U+5C42 1
370
     0
100
AcDb2dPolyline
 66
     1
 10
0.0
 20
0.0
 30
0.0
  0
VERTEX
  5
3B8
330
3B7
100
AcDbEntity
  8
_U+56FE_U+5C42 1
370
     0
100
AcDbVertex
100
AcDb2dVertex
 10
718.9060310090189
 20
535.8912883871233
 30
0.0
  0
VERTEX
  5
3B9
330
3B7
100
AcDbEntity
  8
_U+56FE_U+5C42 1
370
     0
100
AcDbVertex
100
AcDb2dVertex
 10
718.9060310090189
 20
535.8912883871233
 30
0.0
  0
SEQEND
  5
3BA
330
3B7
100
AcDbEntity
  8
_U+56FE_U+5C42 1
370
     0
  0
ENDBLK
  5
3B6
330
3B3
100
AcDbEntity
  8
0
100
AcDbBlockEnd
  0
BLOCK
  5
3BD
330
3BB
100
AcDbEntity
  8
0
100
AcDbBlockBegin
  2
block 62
 70
     0
 10
0.0
 20
0.0
 30
0.0
  3
block 62
  1

  0
POLYLINE
  5
3BF
330
3BB
100
AcDbEntity
  8
_U+56FE_U+5C42 1
370
     0
100
AcDb2dPolyline
 66
     1
 10
0.0
 20
0.0
 30
0.0
  0
VERTEX
  5
3C0
330
3BF
100
AcDbEntity
  8
_U+56FE_U+5C42 1
370
     0
100
AcDbVertex
100
AcDb2dVertex
 10
718.9060310090573
 20
195.8912884721563
 30
0.0
  0
VERTEX
  5
3C1
330
3BF
100
AcDbEntity
  8
_U+56FE_U+5C42 1
370
     0
100
AcDbVertex
100
AcDb2dVertex
 10
718.9060310090573
 20
195.8912884721563
 30
0.0
  0
SEQEND
  5
3C2
330
3BF
100
AcDbEntity
  8
_U+56FE_U+5C42 1
370
     0
  0
ENDBLK
  5
3BE
330
3BB
100
AcDbEntity
  8
0
100
AcDbBlockEnd
  0
BLOCK
  5
3C5
330
3C3
100
AcDbEntity
  8
0
100
AcDbBlockBegin
  2
block 63
 70
     0
 10
0.0
 20
0.0
 30
0.0
  3
block 63
  1

  0
POLYLINE
  5
3C7
330
3C3
100
AcDbEntity
  8
_U+56FE_U+5C42 1
370
     0
100
AcDb2dPolyline
 66
     1
 10
0.0
 20
0.0
 30
0.0
  0
VERTEX
  5
3C8
330
3C7
100
AcDbEntity
  8
_U+56FE_U+5C42 1
370
     0
100
AcDbVertex
100
AcDb2dVertex
 10
438.9060310789814
 20
525.8912883896211
 30
0.0
  0
VERTEX
  5
3C9
330
3C7
100
AcDbEntity
  8
_U+56FE_U+5C42 1
370
     0
100
AcDbVertex
100
AcDb2dVertex
 10
438.9060310789814
 20
525.8912883896211
 30
0.0
  0
SEQEND
  5
3CA
330
3C7
100
AcDbEntity
  8
_U+56FE_U+5C42 1
370
     0
  0
ENDBLK
  5
3C6
330
3C3
100
AcDbEntity
  8
0
100
AcDbBlockEnd
  0
BLOCK
  5
3CD
330
3CB
100
AcDbEntity
  8
0
100
AcDbBlockBegin
  2
block 64
 70
     0
 10
0.0
 20
0.0
 30
0.0
  3
block 64
  1

  0
POLYLINE
  5
3CF
330
3CB
100
AcDbEntity
  8
_U+56FE_U+5C42 1
370
     0
100
AcDb2dPolyline
 66
     1
 10
0.0
 20
0.0
 30
0.0
  0
VERTEX
  5
3D0
330
3CF
100
AcDbEntity
  8
_U+56FE_U+5C42 1
370
     0
100
AcDbVertex
100
AcDb2dVertex
 10
728.9060310064787
 20
525.8912883896211
 30
0.0
  0
VERTEX
  5
3D1
330
3CF
100
AcDbEntity
  8
_U+56FE_U+5C42 1
370
     0
100
AcDbVertex
100
AcDb2dVertex
 10
728.9060310064787
 20
525.8912883896211
 30
0.0
  0
SEQEND
  5
3D2
330
3CF
100
AcDbEntity
  8
_U+56FE_U+5C42 1
370
     0
  0
ENDBLK
  5
3CE
330
3CB
100
AcDbEntity
  8
0
100
AcDbBlockEnd
  0
ENDSEC
  0
SECTION
  2
ENTITIES
  0
INSERT
  5
42
330
1F
100
AcDbEntity
  8
_U+56FE_U+5C42 1
100
AcDbBlockReference
  2
block 2
 10
0.0
 20
0.0
 30
0.0
  0
INSERT
  5
1FD
330
1F
100
AcDbEntity
  8
_U+56FE_U+5C42 1
100
AcDbBlockReference
  2
block 9
 10
0.0
 20
0.0
 30
0.0
  0
INSERT
  5
37C
330
1F
100
AcDbEntity
  8
_U+56FE_U+5C42 1
100
AcDbBlockReference
  2
block 52
 10
0.0
 20
0.0
 30
0.0
  0
SPLINE
  5
3D3
330
1F
100
AcDbEntity
  8
_U+56FE_U+5C42 1
  6
AI-Linetype-3
 62
    18
420
   196608
370
    13
100
AcDbSpline
210
0.0
220
0.0
230
1.0
 70
    11
 71
     3
 72
    29
 73
    25
 74
     0
 42
0.0000000001
 43
0.0000000001
 12
1.0
 22
0.0
 32
0.0
 13
1.0
 23
0.0
 33
0.0
 40
0.0
 40
0.0
 40
0.0
 40
0.0
 40
1.0
 40
1.0
 40
1.0
 40
2.0
 40
2.0
 40
2.0
 40
3.0
 40
3.0
 40
3.0
 40
4.0
 40
4.0
 40
4.0
 40
5.0
 40
5.0
 40
5.0
 40
6.0
 40
6.0
 40
6.0
 40
7.0
 40
7.0
 40
7.0
 40
8.0
 40
8.0
 40
8.0
 40
8.0
 10
718.9060310089797
 20
200.3912884710107
 30
0.0
 10
718.9060310089797
 20
200.3912884710107
 30
0.0
 10
448.9060310764801
 20
200.3912884710107
 30
0.0
 10
448.9060310764801
 20
200.3912884710107
 30
0.0
 10
445.86846495317
 20
200.3912884710107
 30
0.0
 10
443.406031077856
 20
202.8537223463252
 30
0.0
 10
443.406031077856
 20
205.8912884696348
 30
0.0
 10
443.406031077856
 20
205.8912884696348
 30
0.0
 10
443.406031077856
 20
525.8912883896352
 30
0.0
 10
443.406031077856
 20
525.8912883896352
 30
0.0
 10
443.406031077856
 20
528.9288545129453
 30
0.0
 10
445.86846495317
 20
531.3912883882592
 30
0.0
 10
448.9060310764801
 20
531.3912883882592
 30
0.0
 10
448.9060310764801
 20
531.3912883882592
 30
0.0
 10
718.9060310089797
 20
531.3912883882592
 30
0.0
 10
718.9060310089797
 20
531.3912883882592
 30
0.0
 10
721.9435971322898
 20
531.3912883882592
 30
0.0
 10
724.4060310076076
 20
528.9288545129453
 30
0.0
 10
724.4060310076076
 20
525.8912883896352
 30
0.0
 10
724.4060310076076
 20
525.8912883896352
 30
0.0
 10
724.4060310076076
 20
205.8912884696348
 30
0.0
 10
724.4060310076076
 20
205.8912884696348
 30
0.0
 10
724.4060310076076
 20
202.8537223463252
 30
0.0
 10
721.9435971322898
 20
200.3912884710107
 30
0.0
 10
718.9060310089797
 20
200.3912884710107
 30
0.0
  0
MTEXT
  5
3D5
330
1F
100
AcDbEntity
  8
_U+56FE_U+5C42 1
 62
   250
420
  2234132
100
AcDbMText
 10
575.9897344208897
 20
260.120245709557
 30
0.0
 40
2.611100629567003
 41
0.0
 46
0.0
 71
     7
 72
     1
  1
\fNoto Sans SC Bold|b1|i0|c0|p34;\W1;Please tear perforated edge for zero / flushed reveal
 73
     1
 44
1.0
  0
MTEXT
  5
3D6
330
1F
100
AcDbEntity
  8
_U+56FE_U+5C42 1
 62
   250
420
  2234132
100
AcDbMText
 10
664.7257909172604
 20
262.0655525188139
 30
0.0
 40
2.312594524377601
 41
0.0
 46
0.0
 71
     7
 72
     1
  1
\fNoto Sans SC Bold|b1|i0|c0|p34;\W1.12908;11   \fAdobe Heiti Std R|b0|i0|c0|p34;* \fNoto Sans SC Bold|b1|i0|c0|p34;13\fAdobe Heiti Std R|b0|i0|c0|p34;”\fNoto Sans SC Bold|b1|i0|c0|p34;（281mm*331mm）
 73
     1
 44
1.0
  0
MTEXT
  5
3D7
330
1F
100
AcDbEntity
  8
_U+56FE_U+5C42 1
 62
   250
420
  2234132
100
AcDbMText
 10
668.3065262713186
 20
261.6960027782209
 30
0.0
 40
2.611100629567003
 41
0.0
 46
0.0
 71
     7
 72
     1
  1
\fAdobe Heiti Std R|b0|i0|c0|p34;\W1;”
 73
     1
 44
1.0
  0
MTEXT
  5
3D8
330
1F
100
AcDbEntity
  8
_U+56FE_U+5C42 1
 62
   250
420
  2234132
100
AcDbMText
 10
677.0560783389011
 20
237.6466612168759
 30
0.0
 40
2.611100629567003
 41
0.0
 46
0.0
 71
     7
 72
     1
  1
\fNoto Sans SC Bold|b1|i0|c0|p34;\W1;290mm*340mm
 73
     1
 44
1.0
  0
MTEXT
  5
3D9
330
1F
100
AcDbEntity
  8
_U+56FE_U+5C42 1
 62
   250
420
  2234132
100
AcDbMText
 10
588.7457064534267
 20
235.6133658614814
 30
0.0
 40
2.611100629567003
 41
0.0
 46
0.0
 71
     7
 72
     1
  1
\fNoto Sans SC Bold|b1|i0|c0|p34;\W1;Please use outer edge for positive reveal 3/8\fAdobe Heiti Std R|b0|i0|c0|p34;\H2.31259;\W1.12908;”
 73
     1
 44
1.0
  0
POLYLINE
  5
3DA
330
1F
100
AcDbEntity
  8
_U+56FE_U+5C42 1
 62
     7
420
 16777215
370
     5
100
AcDb2dPolyline
 66
     1
 10
0.0
 20
0.0
 30
0.0
  0
VERTEX
  5
3DB
330
3DA
100
AcDbEntity
  8
_U+56FE_U+5C42 1
 62
     7
420
 16777215
370
     5
100
AcDbVertex
100
AcDb2dVertex
 10
659.1213861131434
 20
260.7079040354556
 30
0.0
  0
VERTEX
  5
3DC
330
3DA
100
AcDbEntity
  8
_U+56FE_U+5C42 1
 62
     7
420
 16777215
370
     5
100
AcDbVertex
100
AcDb2dVertex
 10
723.845463725073
 20
260.7079040354556
 30
0.0
  0
SEQEND
  5
3DD
330
3DA
100
AcDbEntity
  8
_U+56FE_U+5C42 1
 62
     7
420
 16777215
370
     5
  0
POLYLINE
  5
3DE
330
1F
100
AcDbEntity
  8
_U+56FE_U+5C42 1
 62
     7
420
 16777215
370
     5
100
AcDb2dPolyline
 66
     1
 10
0.0
 20
0.0
 30
0.0
  0
VERTEX
  5
3DF
330
3DE
100
AcDbEntity
  8
_U+56FE_U+5C42 1
 62
     7
420
 16777215
370
     5
100
AcDbVertex
100
AcDb2dVertex
 10
659.6496831653426
 20
236.2014611097398
 30
0.0
  0
VERTEX
  5
3E0
330
3DE
100
AcDbEntity
  8
_U+56FE_U+5C42 1
 62
     7
420
 16777215
370
     5
100
AcDbVertex
100
AcDb2dVertex
 10
728.701746549642
 20
236.2014611097398
 30
0.0
  0
SEQEND
  5
3E1
330
3DE
100
AcDbEntity
  8
_U+56FE_U+5C42 1
 62
     7
420
 16777215
370
     5
  0
SPLINE
  5
3E2
330
1F
100
AcDbEntity
  8
_U+56FE_U+5C42 1
370
     0
100
AcDbSpline
210
0.0
220
0.0
230
1.0
 70
    11
 71
     3
 72
    29
 73
    25
 74
     0
 42
0.0000000001
 43
0.0000000001
 12
1.0
 22
0.0
 32
0.0
 13
1.0
 23
0.0
 33
0.0
 40
0.0
 40
0.0
 40
0.0
 40
0.0
 40
1.0
 40
1.0
 40
1.0
 40
2.0
 40
2.0
 40
2.0
 40
3.0
 40
3.0
 40
3.0
 40
4.0
 40
4.0
 40
4.0
 40
5.0
 40
5.0
 40
5.0
 40
6.0
 40
6.0
 40
6.0
 40
7.0
 40
7.0
 40
7.0
 40
8.0
 40
8.0
 40
8.0
 40
8.0
 10
557.5092940657235
 20
234.8567311589524
 30
0.0
 10
557.5092940657235
 20
234.8567311589524
 30
0.0
 10
459.4609436745685
 20
234.8567311589524
 30
0.0
 10
459.4609436745685
 20
234.8567311589524
 30
0.0
 10
456.6995199261078
 20
234.8567311589524
 30
0.0
 10
454.4609436758209
 20
237.0953074092389
 30
0.0
 10
454.4609436758209
 20
239.8567311577026
 30
0.0
 10
454.4609436758209
 20
239.8567311577026
 30
0.0
 10
454.4609436758209
 20
260.4269330473641
 30
0.0
 10
454.4609436758209
 20
260.4269330473641
 30
0.0
 10
454.4609436758209
 20
263.1883567958271
 30
0.0
 10
456.6995199261078
 20
265.4269330461136
 30
0.0
 10
459.4609436745685
 20
265.4269330461136
 30
0.0
 10
459.4609436745685
 20
265.4269330461136
 30
0.0
 10
557.5092940657235
 20
265.4269330461136
 30
0.0
 10
557.5092940657235
 20
265.4269330461136
 30
0.0
 10
560.2707178141878
 20
265.4269330461136
 30
0.0
 10
562.509294064475
 20
263.1883567958271
 30
0.0
 10
562.509294064475
 20
260.4269330473635
 30
0.0
 10
562.509294064475
 20
260.4269330473635
 30
0.0
 10
562.509294064475
 20
239.8567311577026
 30
0.0
 10
562.509294064475
 20
239.8567311577026
 30
0.0
 10
562.509294064475
 20
237.0953074092389
 30
0.0
 10
560.2707178141878
 20
234.8567311589524
 30
0.0
 10
557.5092940657235
 20
234.8567311589524
 30
0.0
  0
HATCH
  5
3E3
330
1F
100
AcDbEntity
  8
_U+56FE_U+5C42 1
 62
   254
420
 14868961
100
AcDbHatch
 10
0.0
 20
0.0
 30
0.0
210
0.0
220
0.0
230
1.0
  2
SOLID
 70
     1
 71
     0
 91
        1
 92
        1
 93
        1
 72
     4
 94
        3
 73
     0
 74
     1
 95
       29
 96
       25
 40
0.0
 40
0.0
 40
0.0
 40
0.0
 40
1.0
 40
1.0
 40
1.0
 40
2.0
 40
2.0
 40
2.0
 40
3.0
 40
3.0
 40
3.0
 40
4.0
 40
4.0
 40
4.0
 40
5.0
 40
5.0
 40
5.0
 40
6.0
 40
6.0
 40
6.0
 40
7.0
 40
7.0
 40
7.0
 40
8.0
 40
8.0
 40
8.0
 40
8.0
 10
557.5092940657235
 20
234.8567311589524
 10
557.5092940657235
 20
234.8567311589524
 10
459.4609436745685
 20
234.8567311589524
 10
459.4609436745685
 20
234.8567311589524
 10
456.6995199261078
 20
234.8567311589524
 10
454.4609436758209
 20
237.0953074092389
 10
454.4609436758209
 20
239.8567311577026
 10
454.4609436758209
 20
239.8567311577026
 10
454.4609436758209
 20
260.4269330473641
 10
454.4609436758209
 20
260.4269330473641
 10
454.4609436758209
 20
263.1883567958271
 10
456.6995199261078
 20
265.4269330461136
 10
459.4609436745685
 20
265.4269330461136
 10
459.4609436745685
 20
265.4269330461136
 10
557.5092940657235
 20
265.4269330461136
 10
557.5092940657235
 20
265.4269330461136
 10
560.2707178141878
 20
265.4269330461136
 10
562.509294064475
 20
263.1883567958271
 10
562.509294064475
 20
260.4269330473635
 10
562.509294064475
 20
260.4269330473635
 10
562.509294064475
 20
239.8567311577026
 10
562.509294064475
 20
239.8567311577026
 10
562.509294064475
 20
237.0953074092389
 10
560.2707178141878
 20
234.8567311589524
 10
557.5092940657235
 20
234.8567311589524
 97
        0
 97
        0
 75
     2
 76
     1
 98
        0
  0
MTEXT
  5
3E4
330
1F
100
AcDbEntity
  8
_U+56FE_U+5C42 1
 62
   250
420
  2234388
100
AcDbMText
 10
462.7687598872918
 20
256.3553827863462
 30
0.0
 40
4.713838950949633
 41
0.0
 46
0.0
 71
     7
 72
     1
  1
\fArial|b0|i0|c0|p34;\W1;Any questions.
 73
     1
 44
1.0
  0
MTEXT
  5
3E5
330
1F
100
AcDbEntity
  8
_U+56FE_U+5C42 1
 62
   250
420
  2234388
100
AcDbMText
 10
462.7687598872918
 20
248.3658618465033
 30
0.0
 40
4.713838950949633
 41
0.0
 46
0.0
 71
     7
 72
     1
  1
\fArial|b0|i0|c0|p34;\W1;PLS feel free to contact us.
 73
     1
 44
1.0
  0
MTEXT
  5
3E6
330
1F
100
AcDbEntity
  8
_U+56FE_U+5C42 1
 62
   250
420
  2234388
100
AcDbMText
 10
462.7687598872918
 20
240.3763409066604
 30
0.0
 40
4.713838950949633
 41
0.0
 46
0.0
 71
     7
 72
     1
  1
\fArial|b0|i0|c0|p34;\W1;We'll reply you within 24 hours.
 73
     1
 44
1.0
  0
MTEXT
  5
3E7
330
1F
100
AcDbEntity
  8
_U+56FE_U+5C42 1
 62
   250
420
  2234388
100
AcDbMText
 10
455.7713187879669
 20
219.8976887471089
 30
0.0
 40
6.493933331709851
 41
0.0
 46
0.0
 71
     7
 72
     1
  1
\fArial|b1|i0|c0|p34;\W1;NOTE: Cutout template is provided as a guide ONLY and 
 73
     1
 44
1.0
  0
MTEXT
  5
3E8
330
1F
100
AcDbEntity
  8
_U+56FE_U+5C42 1
 62
   250
420
  2234388
100
AcDbMText
 10
455.7713187879669
 20
208.8909531812842
 30
0.0
 40
6.493933331709851
 41
0.0
 46
0.0
 71
     7
 72
     1
  1
\fArial|b1|i0|c0|p34;\W1;must be checked against actual sink to verify correct fit.
 73
     1
 44
1.0
  0
MTEXT
  5
3E9
330
1F
100
AcDbEntity
  8
_U+56FE_U+5C42 1
 62
   250
420
  2234132
100
AcDbMText
 10
482.7504805735534
 20
507.601717901486
 30
0.0
 40
10.89499418444056
 41
0.0
 46
0.0
 71
     7
 72
     1
  1
\fArial|b0|i0|c0|p34;\W0.98746;Model NO: US1315R-055R00O
 73
     1
 44
1.0
  0
MTEXT
  5
3EA
330
1F
100
AcDbEntity
  8
_U+56FE_U+5C42 1
 62
   250
420
  2234132
100
AcDbMText
 10
448.9060724619652
 20
171.9777939684395
 30
0.0
 40
8.497501345735325
 41
0.0
 46
0.0
 71
     7
 72
     1
  1
\fAlibaba PuHuiTi-R-GBpc-EUC-H|b0|i0|c0|p34;\W1;Hole size：290mm*340mm    Fillet：R10（1:1） 
 73
     1
 44
1.0
  0
MTEXT
  5
3EB
330
1F
100
AcDbEntity
  8
_U+56FE_U+5C42 1
 62
   250
420
  2234132
100
AcDbMText
 10
448.9060724619652
 20
157.575227782804
 30
0.0
 40
8.497501345735325
 41
0.0
 46
0.0
 71
     7
 72
     1
  1
\fAlibaba PuHuiTi-R-GBpc-EUC-H|b0|i0|c0|p34;\W1;Applicable model ：US1315R-055R00O
 73
     1
 44
1.0
  0
ENDSEC
  0
SECTION
  2
OBJECTS
  0
DICTIONARY
  5
C
330
0
100
AcDbDictionary
281
     1
  3
ACAD_GROUP
350
D
  3
ACAD_LAYOUT
350
1A
  3
ACAD_MATERIAL
350
3B
  3
ACAD_MLEADERSTYLE
350
3ED
  3
ACAD_MLINESTYLE
350
17
  3
ACAD_PLOTSETTINGS
350
19
  3
ACAD_PLOTSTYLENAME
350
E
  3
ACAD_TABLESTYLE
350
3EC
  3
ACAD_VISUALSTYLE
350
2A
  0
SUN
  5
3F
330
29
100
AcDbSun
 90
        1
290
     0
 63
     7
421
 16777215
 40
1.0
291
     1
 91
  2455826
 92
 54000000
292
     0
 70
     2
 71
   256
280
     1
  0
DICTIONARY
  5
D
102
{ACAD_REACTORS
330
C
102
}
330
C
100
AcDbDictionary
281
     1
  0
DICTIONARY
  5
1A
102
{ACAD_REACTORS
330
C
102
}
330
C
100
AcDbDictionary
281
     1
  3
Layout1
350
1E
  3
Layout2
350
26
  3
Model
350
22
  0
DICTIONARY
  5
3B
102
{ACAD_REACTORS
330
C
102
}
330
C
100
AcDbDictionary
281
     1
  3
ByBlock
350
3D
  3
ByLayer
350
3C
  3
Global
350
3E
  0
DICTIONARY
  5
3ED
102
{ACAD_REACTORS
330
C
102
}
330
C
100
AcDbDictionary
281
     1
  0
DICTIONARY
  5
17
102
{ACAD_REACTORS
330
C
102
}
330
C
100
AcDbDictionary
281
     1
  3
Standard
350
18
  0
DICTIONARY
  5
19
102
{ACAD_REACTORS
330
C
102
}
330
C
100
AcDbDictionary
281
     1
  0
ACDBDICTIONARYWDFLT
  5
E
102
{ACAD_REACTORS
330
C
102
}
330
C
100
AcDbDictionary
281
     1
  3
Normal
350
F
100
AcDbDictionaryWithDefault
340
F
  0
DICTIONARY
  5
3EC
102
{ACAD_REACTORS
330
C
102
}
330
C
100
AcDbDictionary
281
     1
  0
DICTIONARY
  5
2A
102
{ACAD_REACTORS
330
C
102
}
330
C
100
AcDbDictionary
281
     1
  3
2dWireframe
350
2F
  3
3D Hidden
350
31
  3
3dWireframe
350
30
  3
Basic
350
32
  3
Brighten
350
36
  3
ColorChange
350
3A
  3
Conceptual
350
34
  3
Dim
350
35
  3
Facepattern
350
39
  3
Flat
350
2B
  3
FlatWithEdges
350
2C
  3
Gouraud
350
2D
  3
GouraudWithEdges
350
2E
  3
Linepattern
350
38
  3
Realistic
350
33
  3
Thicken
350
37
  0
LAYOUT
  5
1E
102
{ACAD_REACTORS
330
1A
102
}
330
1A
100
AcDbPlotSettings
  1

  2
none_device
  4

  6

 40
0.0
 41
0.0
 42
0.0
 43
0.0
 44
0.0
 45
0.0
 46
0.0
 47
0.0
 48
0.0
 49
0.0
140
0.0
141
0.0
142
1.0
143
1.0
 70
   688
 72
     0
 73
     0
 74
     5
  7

 75
    16
 76
     0
 77
     2
 78
   300
147
1.0
148
0.0
149
0.0
100
AcDbLayout
  1
Layout1
 70
     1
 71
     1
 10
0.0
 20
0.0
 11
12.0
 21
9.0
 12
0.0
 22
0.0
 32
0.0
 14
1.000000000000000E+20
 24
1.000000000000000E+20
 34
1.000000000000000E+20
 15
-1.000000000000000E+20
 25
-1.000000000000000E+20
 35
-1.000000000000000E+20
146
0.0
 13
0.0
 23
0.0
 33
0.0
 16
1.0
 26
0.0
 36
0.0
 17
0.0
 27
1.0
 37
0.0
 76
     0
330
1B
  0
LAYOUT
  5
26
102
{ACAD_REACTORS
330
1A
102
}
330
1A
100
AcDbPlotSettings
  1

  2
none_device
  4

  6

 40
0.0
 41
0.0
 42
0.0
 43
0.0
 44
0.0
 45
0.0
 46
0.0
 47
0.0
 48
0.0
 49
0.0
140
0.0
141
0.0
142
1.0
143
1.0
 70
   688
 72
     0
 73
     0
 74
     5
  7

 75
    16
 76
     0
 77
     2
 78
   300
147
1.0
148
0.0
149
0.0
100
AcDbLayout
  1
Layout2
 70
     1
 71
     2
 10
0.0
 20
0.0
 11
0.0
 21
0.0
 12
0.0
 22
0.0
 32
0.0
 14
0.0
 24
0.0
 34
0.0
 15
0.0
 25
0.0
 35
0.0
146
0.0
 13
0.0
 23
0.0
 33
0.0
 16
1.0
 26
0.0
 36
0.0
 17
0.0
 27
1.0
 37
0.0
 76
     0
330
23
  0
LAYOUT
  5
22
102
{ACAD_REACTORS
330
1A
102
}
330
1A
100
AcDbPlotSettings
  1

  2
none_device
  4

  6

 40
0.0
 41
0.0
 42
0.0
 43
0.0
 44
0.0
 45
0.0
 46
0.0
 47
0.0
 48
0.0
 49
0.0
140
0.0
141
0.0
142
1.0
143
1.0
 70
  1712
 72
     0
 73
     0
 74
     0
  7

 75
     0
 76
     0
 77
     2
 78
   300
147
1.0
148
0.0
149
0.0
100
AcDbLayout
  1
Model
 70
     1
 71
     0
 10
0.0
 20
0.0
 11
12.0
 21
9.0
 12
0.0
 22
0.0
 32
0.0
 14
1.000000000000000E+20
 24
1.000000000000000E+20
 34
1.000000000000000E+20
 15
-1.000000000000000E+20
 25
-1.000000000000000E+20
 35
-1.000000000000000E+20
146
0.0
 13
0.0
 23
0.0
 33
0.0
 16
1.0
 26
0.0
 36
0.0
 17
0.0
 27
1.0
 37
0.0
 76
     0
330
1F
331
29
  0
MATERIAL
  5
3D
102
{ACAD_REACTORS
330
3B
102
}
330
3B
100
AcDbMaterial
  1
ByBlock
 72
     1
 94
      127
  0
MATERIAL
  5
3C
102
{ACAD_REACTORS
330
3B
102
}
330
3B
100
AcDbMaterial
  1
ByLayer
 72
     1
 94
      127
  0
MATERIAL
  5
3E
102
{ACAD_REACTORS
330
3B
102
}
330
3B
100
AcDbMaterial
  1
Global
 72
     1
 94
      127
  0
MLINESTYLE
  5
18
102
{ACAD_REACTORS
330
17
102
}
330
17
100
AcDbMlineStyle
  2
Standard
 70
     0
  3

 62
   256
 51
90.0
 52
90.0
 71
     2
 49
0.5
 62
   256
  6
BYLAYER
 49
-0.5
 62
   256
  6
BYLAYER
  0
ACDBPLACEHOLDER
  5
F
102
{ACAD_REACTORS
330
E
102
}
330
E
  0
VISUALSTYLE
  5
2F
102
{ACAD_REACTORS
330
2A
102
}
330
2A
100
AcDbVisualStyle
  2
2dWireframe
 70
     4
177
     2
291
     0
 71
     0
176
     1
 72
     2
176
     1
 73
     0
176
     1
 90
        0
176
     1
 40
-0.6
176
     1
 41
-30.0
176
     1
 62
     5
 63
     7
421
 16777215
176
     1
 74
     1
176
     1
 91
        4
176
     1
 64
     7
176
     1
 65
   257
176
     1
 75
     1
176
     1
175
     1
176
     1
 42
1.0
176
     1
 92
        0
176
     1
 66
   257
176
     1
 43
1.0
176
     1
 76
     1
176
     1
 77
     6
176
     1
 78
     2
176
     1
 67
     7
176
     1
 79
     5
176
     1
170
     0
176
     1
171
     0
176
     1
290
     0
176
     1
 93
        1
176
     1
 44
0.0
176
     1
173
     0
176
     1
  0
VISUALSTYLE
  5
31
102
{ACAD_REACTORS
330
2A
102
}
330
2A
100
AcDbVisualStyle
  2
3D Hidden
 70
     6
177
     2
291
     0
 71
     1
176
     1
 72
     2
176
     1
 73
     2
176
     1
 90
        0
176
     1
 40
-0.6
176
     1
 41
-30.0
176
     1
 62
     5
 63
     7
421
 16777215
176
     1
 74
     2
176
     1
 91
        2
176
     1
 64
     7
176
     1
 65
   257
176
     1
 75
     2
176
     1
175
     1
176
     1
 42
40.0
176
     1
 92
        0
176
     1
 66
   257
176
     1
 43
1.0
176
     1
 76
     1
176
     1
 77
     6
176
     1
 78
     2
176
     1
 67
     7
176
     1
 79
     3
176
     1
170
     0
176
     1
171
     0
176
     1
290
     0
176
     1
 93
        1
176
     1
 44
0.0
176
     1
173
     0
176
     1
  0
VISUALSTYLE
  5
30
102
{ACAD_REACTORS
330
2A
102
}
330
2A
100
AcDbVisualStyle
  2
3dWireframe
 70
     5
177
     2
291
     0
 71
     0
176
     1
 72
     2
176
     1
 73
     0
176
     1
 90
        0
176
     1
 40
-0.6
176
     1
 41
-30.0
176
     1
 62
     5
 63
     7
421
 16777215
176
     1
 74
     1
176
     1
 91
        4
176
     1
 64
     7
176
     1
 65
   257
176
     1
 75
     1
176
     1
175
     1
176
     1
 42
1.0
176
     1
 92
        0
176
     1
 66
   257
176
     1
 43
1.0
176
     1
 76
     1
176
     1
 77
     6
176
     1
 78
     2
176
     1
 67
     7
176
     1
 79
     5
176
     1
170
     0
176
     1
171
     0
176
     1
290
     0
176
     1
 93
        1
176
     1
 44
0.0
176
     1
173
     0
176
     1
  0
VISUALSTYLE
  5
32
102
{ACAD_REACTORS
330
2A
102
}
330
2A
100
AcDbVisualStyle
  2
Basic
 70
     7
177
     2
291
     1
 71
     1
176
     1
 72
     0
176
     1
 73
     1
176
     1
 90
        0
176
     1
 40
-0.6
176
     1
 41
-30.0
176
     1
 62
     5
 63
     7
421
 16777215
176
     1
 74
     0
176
     1
 91
        4
176
     1
 64
     7
176
     1
 65
   257
176
     1
 75
     1
176
     1
175
     1
176
     1
 42
1.0
176
     1
 92
        8
176
     1
 66
     7
176
     1
 43
1.0
176
     1
 76
     1
176
     1
 77
     6
176
     1
 78
     2
176
     1
 67
     7
176
     1
 79
     5
176
     1
170
     0
176
     1
171
     0
176
     1
290
     0
176
     1
 93
        1
176
     1
 44
0.0
176
     1
173
     0
176
     1
  0
VISUALSTYLE
  5
36
102
{ACAD_REACTORS
330
2A
102
}
330
2A
100
AcDbVisualStyle
  2
Brighten
 70
    12
177
     2
291
     1
 71
     2
176
     1
 72
     2
176
     1
 73
     0
176
     1
 90
        0
176
     1
 40
-0.6
176
     1
 41
-30.0
176
     1
 62
     5
 63
     7
421
 16777215
176
     1
 74
     1
176
     1
 91
        4
176
     1
 64
     7
176
     1
 65
   257
176
     1
 75
     1
176
     1
175
     1
176
     1
 42
1.0
176
     1
 92
        8
176
     1
 66
     7
176
     1
 43
1.0
176
     1
 76
     1
176
     1
 77
     6
176
     1
 78
     2
176
     1
 67
     7
176
     1
 79
     5
176
     1
170
     0
176
     1
171
     0
176
     1
290
     0
176
     1
 93
        1
176
     1
 44
50.0
176
     1
173
     0
176
     1
  0
VISUALSTYLE
  5
3A
102
{ACAD_REACTORS
330
2A
102
}
330
2A
100
AcDbVisualStyle
  2
ColorChange
 70
    16
177
     2
291
     1
 71
     2
176
     1
 72
     2
176
     1
 73
     3
176
     1
 90
        0
176
     1
 40
-0.6
176
     1
 41
-30.0
176
     1
 62
     5
 63
     8
421
  8421504
176
     1
 74
     1
176
     1
 91
        4
176
     1
 64
     7
176
     1
 65
   257
176
     1
 75
     1
176
     1
175
     1
176
     1
 42
1.0
176
     1
 92
        8
176
     1
 66
     8
424
  8421504
176
     1
 43
1.0
176
     1
 76
     1
176
     1
 77
     6
176
     1
 78
     2
176
     1
 67
     7
176
     1
 79
     5
176
     1
170
     0
176
     1
171
     0
176
     1
290
     0
176
     1
 93
        1
176
     1
 44
0.0
176
     1
173
     0
176
     1
  0
VISUALSTYLE
  5
34
102
{ACAD_REACTORS
330
2A
102
}
330
2A
100
AcDbVisualStyle
  2
Conceptual
 70
     9
177
     2
291
     0
 71
     3
176
     1
 72
     2
176
     1
 73
     0
176
     1
 90
        0
176
     1
 40
-0.6
176
     1
 41
-30.0
176
     1
 62
     5
 63
     7
421
 16777215
176
     1
 74
     2
176
     1
 91
        2
176
     1
 64
     7
176
     1
 65
   257
176
     1
 75
     1
176
     1
175
     1
176
     1
 42
40.0
176
     1
 92
        8
176
     1
 66
     7
176
     1
 43
1.0
176
     1
 76
     1
176
     1
 77
     6
176
     1
 78
     2
176
     1
 67
     7
176
     1
 79
     3
176
     1
170
     0
176
     1
171
     0
176
     1
290
     0
176
     1
 93
        1
176
     1
 44
0.0
176
     1
173
     0
176
     1
  0
VISUALSTYLE
  5
35
102
{ACAD_REACTORS
330
2A
102
}
330
2A
100
AcDbVisualStyle
  2
Dim
 70
    11
177
     2
291
     1
 71
     2
176
     1
 72
     2
176
     1
 73
     0
176
     1
 90
        0
176
     1
 40
-0.6
176
     1
 41
-30.0
176
     1
 62
     5
 63
     7
421
 16777215
176
     1
 74
     1
176
     1
 91
        4
176
     1
 64
     7
176
     1
 65
   257
176
     1
 75
     1
176
     1
175
     1
176
     1
 42
1.0
176
     1
 92
        8
176
     1
 66
     7
176
     1
 43
1.0
176
     1
 76
     1
176
     1
 77
     6
176
     1
 78
     2
176
     1
 67
     7
176
     1
 79
     5
176
     1
170
     0
176
     1
171
     0
176
     1
290
     0
176
     1
 93
        1
176
     1
 44
-50.0
176
     1
173
     0
176
     1
  0
VISUALSTYLE
  5
39
102
{ACAD_REACTORS
330
2A
102
}
330
2A
100
AcDbVisualStyle
  2
Facepattern
 70
    15
177
     2
291
     1
 71
     2
176
     1
 72
     2
176
     1
 73
     0
176
     1
 90
        0
176
     1
 40
-0.6
176
     1
 41
-30.0
176
     1
 62
     5
 63
     7
421
 16777215
176
     1
 74
     1
176
     1
 91
        4
176
     1
 64
     7
176
     1
 65
   257
176
     1
 75
     1
176
     1
175
     1
176
     1
 42
1.0
176
     1
 92
        8
176
     1
 66
     7
176
     1
 43
1.0
176
     1
 76
     1
176
     1
 77
     6
176
     1
 78
     2
176
     1
 67
     7
176
     1
 79
     5
176
     1
170
     0
176
     1
171
     0
176
     1
290
     0
176
     1
 93
        1
176
     1
 44
0.0
176
     1
173
     0
176
     1
  0
VISUALSTYLE
  5
2B
102
{ACAD_REACTORS
330
2A
102
}
330
2A
100
AcDbVisualStyle
  2
Flat
 70
     0
177
     2
291
     1
 71
     2
176
     1
 72
     1
176
     1
 73
     1
176
     1
 90
        2
176
     1
 40
-0.6
176
     1
 41
30.0
176
     1
 62
     5
 63
     7
421
 16777215
176
     1
 74
     0
176
     1
 91
        4
176
     1
 64
     7
176
     1
 65
   257
176
     1
 75
     1
176
     1
175
     1
176
     1
 42
1.0
176
     1
 92
        8
176
     1
 66
     7
176
     1
 43
1.0
176
     1
 76
     1
176
     1
 77
     6
176
     1
 78
     2
176
     1
 67
     7
176
     1
 79
     5
176
     1
170
     0
176
     1
171
     0
176
     1
290
     0
176
     1
 93
       13
176
     1
 44
0.0
176
     1
173
     0
176
     1
  0
VISUALSTYLE
  5
2C
102
{ACAD_REACTORS
330
2A
102
}
330
2A
100
AcDbVisualStyle
  2
FlatWithEdges
 70
     1
177
     2
291
     1
 71
     2
176
     1
 72
     1
176
     1
 73
     1
176
     1
 90
        2
176
     1
 40
-0.6
176
     1
 41
30.0
176
     1
 62
     5
 63
     7
421
 16777215
176
     1
 74
     1
176
     1
 91
        4
176
     1
 64
     7
176
     1
 65
   257
176
     1
 75
     1
176
     1
175
     1
176
     1
 42
1.0
176
     1
 92
        0
176
     1
 66
   257
176
     1
 43
1.0
176
     1
 76
     1
176
     1
 77
     6
176
     1
 78
     2
176
     1
 67
     7
176
     1
 79
     5
176
     1
170
     0
176
     1
171
     0
176
     1
290
     0
176
     1
 93
       13
176
     1
 44
0.0
176
     1
173
     0
176
     1
  0
VISUALSTYLE
  5
2D
102
{ACAD_REACTORS
330
2A
102
}
330
2A
100
AcDbVisualStyle
  2
Gouraud
 70
     2
177
     2
291
     1
 71
     2
176
     1
 72
     2
176
     1
 73
     1
176
     1
 90
        2
176
     1
 40
-0.6
176
     1
 41
30.0
176
     1
 62
     5
 63
     7
421
 16777215
176
     1
 74
     0
176
     1
 91
        4
176
     1
 64
     7
176
     1
 65
   257
176
     1
 75
     1
176
     1
175
     1
176
     1
 42
1.0
176
     1
 92
        0
176
     1
 66
     7
176
     1
 43
1.0
176
     1
 76
     1
176
     1
 77
     6
176
     1
 78
     2
176
     1
 67
     7
176
     1
 79
     5
176
     1
170
     0
176
     1
171
     0
176
     1
290
     0
176
     1
 93
       13
176
     1
 44
0.0
176
     1
173
     0
176
     1
  0
VISUALSTYLE
  5
2E
102
{ACAD_REACTORS
330
2A
102
}
330
2A
100
AcDbVisualStyle
  2
GouraudWithEdges
 70
     3
177
     2
291
     1
 71
     2
176
     1
 72
     2
176
     1
 73
     1
176
     1
 90
        2
176
     1
 40
-0.6
176
     1
 41
30.0
176
     1
 62
     5
 63
     7
421
 16777215
176
     1
 74
     1
176
     1
 91
        4
176
     1
 64
     7
176
     1
 65
   257
176
     1
 75
     1
176
     1
175
     1
176
     1
 42
1.0
176
     1
 92
        0
176
     1
 66
   257
176
     1
 43
1.0
176
     1
 76
     1
176
     1
 77
     6
176
     1
 78
     2
176
     1
 67
     7
176
     1
 79
     5
176
     1
170
     0
176
     1
171
     0
176
     1
290
     0
176
     1
 93
       13
176
     1
 44
0.0
176
     1
173
     0
176
     1
  0
VISUALSTYLE
  5
38
102
{ACAD_REACTORS
330
2A
102
}
330
2A
100
AcDbVisualStyle
  2
Linepattern
 70
    14
177
     2
291
     1
 71
     2
176
     1
 72
     2
176
     1
 73
     0
176
     1
 90
        0
176
     1
 40
-0.6
176
     1
 41
-30.0
176
     1
 62
     5
 63
     7
421
 16777215
176
     1
 74
     1
176
     1
 91
        4
176
     1
 64
     7
176
     1
 65
   257
176
     1
 75
     7
176
     1
175
     7
176
     1
 42
1.0
176
     1
 92
        8
176
     1
 66
     7
176
     1
 43
1.0
176
     1
 76
     1
176
     1
 77
     6
176
     1
 78
     2
176
     1
 67
     7
176
     1
 79
     5
176
     1
170
     0
176
     1
171
     0
176
     1
290
     0
176
     1
 93
        1
176
     1
 44
0.0
176
     1
173
     0
176
     1
  0
VISUALSTYLE
  5
33
102
{ACAD_REACTORS
330
2A
102
}
330
2A
100
AcDbVisualStyle
  2
Realistic
 70
     8
177
     2
291
     0
 71
     2
176
     1
 72
     2
176
     1
 73
     0
176
     1
 90
        0
176
     1
 40
-0.6
176
     1
 41
-30.0
176
     1
 62
     5
 63
     7
421
 16777215
176
     1
 74
     1
176
     1
 91
        0
176
     1
 64
     7
176
     1
 65
   257
176
     1
 75
     1
176
     1
175
     1
176
     1
 42
1.0
176
     1
 92
        8
176
     1
 66
     8
424
  7895160
176
     1
 43
1.0
176
     1
 76
     1
176
     1
 77
     6
176
     1
 78
     2
176
     1
 67
     7
176
     1
 79
     5
176
     1
170
     0
176
     1
171
     0
176
     1
290
     0
176
     1
 93
       13
176
     1
 44
0.0
176
     1
173
     0
176
     1
  0
VISUALSTYLE
  5
37
102
{ACAD_REACTORS
330
2A
102
}
330
2A
100
AcDbVisualStyle
  2
Thicken
 70
    13
177
     2
291
     1
 71
     2
176
     1
 72
     2
176
     1
 73
     0
176
     1
 90
        0
176
     1
 40
-0.6
176
     1
 41
-30.0
176
     1
 62
     5
 63
     7
421
 16777215
176
     1
 74
     1
176
     1
 91
        4
176
     1
 64
     7
176
     1
 65
   257
176
     1
 75
     1
176
     1
175
     1
176
     1
 42
1.0
176
     1
 92
       12
176
     1
 66
     7
176
     1
 43
1.0
176
     1
 76
     1
176
     1
 77
     6
176
     1
 78
     2
176
     1
 67
     7
176
     1
 79
     5
176
     1
170
     0
176
     1
171
     0
176
     1
290
     0
176
     1
 93
        1
176
     1
 44
0.0
176
     1
173
     0
176
     1
  0
ENDSEC
  0
EOF
